Dire Straits - Brothers In Arms Chords & Tabs

 

Brothers In Arms Chords & Tabs

Dire Straits Chords & Tabs

Version: 3 Type: Tab 0 ratings
1 star 2 stars 3 stars 4 stars 5 stars
comments

Brothers In Arms Tab

Intro-solo
This works best with a Les Paul with distortion.

E-----------------------------------------------------
B-----------------------------------------------------
G-----------------------------------------------------
D-------6---8--6-----6----6----8----6-----------------
A--4---6----------------------------------------------
E-----------------------------------------------------
[ Tab from: http://www.guitartabs.cc/tabs/d/dire_straits/brothers_in_arms_tab_ver_3.html ]
E-----------------------------------------------------
B---------------------------------------4-------------
G--3---4---6-----4----3--------------4--------6-------
D------------------------6---4---6--------------------
A-----------------------------------------------------
E-----------------------------------------------------

E-----------------------------------------------------
B-----------------------------------------------------
G---6---8---------------------------------------------
D-----------------------------------------------------
A-----------------------------------------------------
E-----------------------------------------------------
Comments