Dionisio Aguado - Estudio Chords & Tabs

 

Estudio Chords & Tabs

Dionisio Aguado Chords & Tabs

Version: 1 Type: Tab 1 rating
1 star 2 stars 3 stars 4 stars 5 stars
comments

Estudio Tab

Author/Artist: Dionisio Aguado
Title: Estudio
Transcribed by: Juan(cali_8o5)
-----0-------0-------0-------0-------0-------0-------0-------0----------------
---1---1---1---1---0---0---0---0---3---3---3---3---1---1---1---1--------------
-2-------2-------1---------------4-------4-------2----------------------------
-------------------------2----------------------------------------------------
---------------------------------------------------------0--------------------
------------------------------------------------------------------------------
                                                                              
[ Tab from: http://www.guitartabs.cc/tabs/d/dionisio_aguado/estudio_tab.html ]
-----0-------0-------1-------1-------0-------0-------0------------------------ |
---1---1---2---2---3---3---3---3---1---1---0---0---1---1----------------------.|
-2-------0-------------------------------1-------2---------------------------- |
-----------------3-------0-------2--------------------------------------------.|
---------------------------------------------------------0-------------------- |
------------------------------------------------------------------------------ |
                                                                  

-----0-------0-------1-------1-------0-------0-------1-------1----------------
---1---1---1---1---0---0---0---0---1---1---1---1---0---0---0---0--------------
-2-------2-------0-------------------------------0----------------------------
-----------------------------------------2------------------------------------
---------------------------------3--------------------------------------------
-------------------------3-------------------------------3--------------------
                                                                              

-----0-------0-------0-------0-------1-------0-------0------------------------ |
---1---1---3---3---1---1---1---1---0---0---3---3---1---1----------------------.|
-------------------------------------------------2---------------------------- |
---------------------------------0-------2------------------------------------.|
-3-------2-------0-------3-------------------------------0-------------------- |
------------------------------------------------------------------------------ |
Comments