Dio - We Rock Chords & Tabs

 

We Rock Chords & Tabs

Dio Chords & Tabs

Version: 1 Type: Bass Tab 0 ratings
1 star 2 stars 3 stars 4 stars 5 stars
comments

We Rock Bass Tab

Dio
We Rock

Drew
dwr7713@aol.com

  Intro

 (0:03)     (0:06)
1-------------------------------------|
2-------------------------3-2-3-2-3-2-|
3-------------------------------------|
4--5----------5-5---------------------|

1----------------------------------------------|
2----------------------------------------------|
3------------------------------------------3-2-|
4-55555555555555555555555555555-1-3-0----------|

  Verse

1--------------------------------------------------------------|
2--------------------------------------------------------------|
3---------------------3---------------------3--------------3-2-|
4-55555555-3-55555555---55555555-3-55555555---333333333333-----|

1-------------------------------------------------------------------|
2-------------------------------------------------------------------|
3----------3---------------------3----------3-----------------------|
4-55555555---55555555-3-55555555---55555555---55555555-3-55555555-3-|

1--------------------------|
2--------------------------|
3-3333333333-2-------------|
4--------------5555555555--|

  Chorus

1-----------------------------------------------------------------------|
2-----------------------------------------------------------------------|
3-----------------------------------------------------------------------|
4-333333333333333333333333-555555555555555555555555555555555555555555555

1--------------------------------|
2--------------------------------|
3----------------------------3-2-|
4-55555555551111111111111111-----|

  Verse

1--------------------------------------------------------------|
2--------------------------------------------------------------|
3---------------------3---------------------3------------------|
4-55555555-3-55555555---55555555-3-55555555---3333333333333333-|

1-------------------------------------------------------------------|
2-------------------------------------------------------------------|
3----------3---------------------3---------------------3------------|
4-55555555---55555555-3-55555555---55555555-3-55555555---55555555-3-|

1-------------------------|
2-------------------------|
3-3333333333-2------------|
4--------------5555555555-|

  Chorus

1-----------------------------------------------------------------------|
2-----------------------------------------------------------------------|
3-----------------------------------------------------------------------|
4-333333333333333333333333-555555555555555555555555555555555555555555555

1-------------------------------------------------------------------|
2-------------------------------------------------------------------|
3------------------2-3-5--------------------------------------------|
4-5555555555-1-3-5-------555555555555555555555555555555555555555555-|
[ Tab from: http://www.guitartabs.cc/tabs/d/dio/we_rock_btab.html ]
1-------------------|
2-3-2-0-2-3-2-------|
3-------------------|
4-------------1-3-5-|

  During Solo

1------------------------------------------------------------|
2-----------------------------------------------------3-2----|
3-55555-2-33333-----------------55555-2-33333------------5-3-|
4---------------555555555555555---------------1111111--------|

1--------------------------------------------------------------|
2--------------------------------------------------------------|
3-55555-2-33333-----------------2-3-55555-2-33333--------------|
4---------------555555555555555-------------------1111111111-0-|

  Bridge Out

 (2:41)    (2:44)
1--------------------------------|
2--------------------------------|
3--------------------------2-3-5-|
4---5--------5-------1-3-5-------|

  Verse

1------------------------------------------------------------------|
2------------------------------------------------------------------|
3---------------------3---------------------3------------------3-2-|
4-55555555-3-55555555---55555555-3-55555555---3333333333333333-----|

1-------------------------------------------------------------------|
2-------------------------------------------------------------------|
3----------3---------------------3---------------------3------------|
4-55555555---55555555-3-55555555---55555555-3-55555555---55555555-3-|

1-------------------------|
2-------------------------|
3-3333333333-2------------|
4--------------5555555555-|

  Chorus

1---------------------------------------------------------------------|
2---------------------------------------------------------------------|
3---------------------------------------------------------------------|
4-33333333333333333333333333333333333333333333333333333333333333333333

1------------------------------------------------------------------|
2------------------------------------------------------------------|
3------------------------------------------------------------------|
4-55555555555555555555555555555555555555555555555555555555555555555

1-------------|
2-------------|
3-------2-3-5-|
4-1-3-5-------|

  Out

1-----------------------------------------------------|
2---------------------------8888888888888888888888888-|
3-----------------------------------------------------|  X2
4-5555555555555555555555555---------------------------|

1-----------------------------------------------------|
2-----------------------------------------------------|
3-----------------------------------------------------|
4-5555555555555555555555555-5555555555555555555555555-|

1-----------------------------------------------------|
2---------------------------8888888888888888888888888-|
3-----------------------------------------------------|  X5
4-5555555555555555555555555---------------------------|
Comments