Dio - The Last In Line Chords & Tabs

 

The Last In Line Chords & Tabs

Dio Chords & Tabs

Version: 1 Type: Bass Tab 0 ratings
1 star 2 stars 3 stars 4 stars 5 stars
comments

The Last In Line Bass Tab

   
Dio
The Last In Line

Tabbed by: Drew
E-mail: dwr7713@aol.com

standard E A D G tuning


  Intro

(00:9)
1------    ---------------------------------------|
2------    ---------------------------------------|
3--5---    -5-7--9---7--5-7-5--5-7-9--7--5--3--5--|
4------    ---------------------------------------|

1---------------------------------------------|
2---------------------------------------------|
3-5-7--9---7--5-7-5--5-7-9--7--5--------5-7-9-|
4---------------------------------------------|

1------------------------|
2------------------------|
3-7--5-7-5--5-7--9-7-5-4-|
4------------------------|

1---------------------------------------------------|
2---------------------------------------------------|
3-----------------------------------------------7h9-|
4---5-5-5-------5-5-5-------5-5-5-------5-5-5-------|

1-------------------------------------------------------------------|
2-------------------------------------------------------------------|
3---------7h9--5h7-------7h9--5h7-------7h9--5h7--------7---7-5-3---|
4---5-5-5----------5-5-5----------5-5-5----------5-5-5----5-------7-|

   Verse

1---------------------------------------------------------|
2---------------------------------------------------------|
3---------------------------------------------------------|
4--5-5-----5-5-----5-5-----5-5-3-333-333-333-33-55-5-5555-|

1------------------------------------------"down"-|
2-------------------------------------------------|
3-------------------------------------------------|
4--5-5-----5-5-----5-5-----5-5-3-333-333-333-33\--|


1------------------------------------------------------------|
2------------------------------------------------------------|
3------------------------------------------------------------|
4--5-5-----5-5-----5-5-----5-5-3-333-333-333-335-555-555-555-|

  Chorus

1-------------------------------------------------------------------|
2-------------------------------------------------------------------|
3-5-3-------------------5-3-------------------5-3-------------------|
4----5-3--1--1-1--1-1-1----5-3--1--1-1--1-1-1----5-3--3--3-3--3-3-3-|

1----------------------------------------------------------|
2----------------------------------------------------------|
3-5-3--------------------------------7h9-5h7-------7h9-5h7-|
4----5-3--3--3-3--3-3-3--3-3---5-5-5---------5-5-5---------|

1----------------------------------|
2----------------------------------|
3-------7h9-5h7-------7----7-5-3---|
4-5-5-5---------5-5-5---5--------7-|

  Verse

1--------------------------------------------------------|
2--------------------------------------------------------|
3--------------------------------------------------------|
4-5-5-----5-5-----5-5-----5-5-3-333-333-333-33-55-5-5555-|

1-----------------------------------------------------------|
2-----------------------------------------------------------|
3-----------------------------------------------------------|
4-5-5-----5-5-----5-5-----5-5-3-333-333-333-335-555-555-555-|

  Chorus
[ Tab from: http://www.guitartabs.cc/tabs/d/dio/the_last_in_line_btab.html ]
1-------------------------------------------------------------------|
2-------------------------------------------------------------------|
3-5-3-------------------5-3-------------------5-3-------------------|
4----5-3--1--1-1--1-1-1----5-3--1--1-1--1-1-1----5-3--3--3-3--3-3-3-|

1---------------------------------------------------------|
2---------------------------------------------------------|
3-5-3-------------------------------7h9-5h7-------7h9-5h7-|
4----5-3--3--3-3--3-3-3--3-3--5-5-5---------5-5-5---------|

1---------------------------------|
2---------------------------------|
3-------7h9-5h7-------7---7-5-3---|
4-5-5-5---------5-5-5---5-------7-|

  During Solo

1-------------------------------------------------------------------------|
2-------------------------------------------------------------------------|
3------------7-5-3------------7-5-3---------------------------7-5-3-------|
4-5-5--------------7-5-5------------5-7-7--------5-7-7--------------7-5-5-|

1--------------------------------------------------------|
2--------------------------------------------------------|
3----7-5-3--------------7-5-3----------------------------|
4----------7-5-5--------------5-7-7--------5-7-7---7-7-7-|

1-----------------------------------------------------------------|
2-----------------------------------------------------------------|
3---------------7-5-3-----------------9-7-5-----------------------|
4-5-555-555-55--------7-5-555-555-55--------9-7-777-777-777---5-7-|

1----------------------------------------------------------------|
2----------------------------------------------------------------|
3-------------7-5-3-----------------7-5-3----------------9-7-5---|
4-777-777-77--------7-5-555-555-55--------7-5-555-555-55-------9-|

1---------------------------------------|
2---------------------------------------|
3---------------------------------------|
4-7-777-777-777-777-777-777-777-777-77--|

   Bridge Out

1-----------------------------------------------|
2-----------------------------------------------|
3---------------------------------------7-5-3---|
4--5-5-5-----5-5-5-----5-5-5-----5-5-5--------7-|

   Verse

1--------------------------------------------------------|
2--------------------------------------------------------|
3--------------------------------------------------------|
4-5-5-----5-5-----5-5-----5-5-3-333-333-333-33-55-5-5555-|

1----------------------------------------------|
2----------------------------------------------|
3----------------------------------------------|
4-5-5-----5-5-----5-5-----5-5-3-333-333-333-33-|

   Chorus

1-------------------------------------------------------------------|
2-------------------------------------------------------------------|
3-5-3-------------------5-3-------------------5-3-------------------|
4----5-3--1--1-1--1-1-1----5-3--1--1-1--1-1-1----5-3--3--3-3--3-3-3-|

1----------------------------|
2----------------------------|
3-5-3------------------------|
4----5-3--3--3-3--3-3-3--3-3-|

1-------------------------------------|
2-------------------------------------|
3-------------------------------------|    X2
4-5-5-5-----5-5-5-----5-5-5-----5-5-5-|

1-----------------------------|
2-----------------------------|
3-------7h9-5h7-------7h9-5h7-|   X11 or however many you want to
4-5-5-5---------5-5-5---------|
Comments