Dio - Stand Up And Shout Chords & Tabs

 

Stand Up And Shout Chords & Tabs

Dio Chords & Tabs

Version: 2 Type: Tab 0 ratings
1 star 2 stars 3 stars 4 stars 5 stars
comments

Stand Up And Shout Tab

   
"Stand up and shout" by DIO
Holy Diver (1983)
Written by Ronnie James Dio and Jimmy Bain
Tabbed by Marcos Cattaneo (marcoscat@yahoo.com)

1) Intro
e|---------------------------------------------------
B|---------------------------------------------------
G|---------------------------------------------------
D|-------5---5---5p0-4(4)------5---5-----------7(7)--
A|---0-0-3-0-3-0-3p0-2(2)--0-0-3-0-3-0-0-3p2p0-5(5)--
E|---------------------------------------------------
  pm..........             ........

2) Intro 2
e|------------------------------------------------------------------
B|------------------------------------------------------------------
G|------------------------------------------------------------------
D|-------5---5---5p0-4-------5---5-----------7---------*-p-i-c-k----
A|---0-0-3-0-3-0-3p0-2---0-0-3-0-3-0-0-3p2p0-5---------*-s-l-i-d-e--
E|------------------------------------------------------------------
  pm..........           ........            __________
                                              Let ring

3) Verse
e|----------------------------------------------------
B|----------------------------------------------------
G|----------------------------------------------------
D|-------5---5---5p0-4(4)------5---5-----------7(7)---
A|---0-0-3-0-3-0-3p0-2(2)--0-0-3-0-3-0-0-3p2p0-5(5)---
E|----------------------------------------------------
  pm..........             ........
         
4) Bridge/Chorus
e|------------------------------------------------------------------------
B|------------------------------------------------------------------------
G|----------------------------------------------<5b>-<5b>-<5b>-5p3--------
D|--7-------5-------9-------5-------10-------5---------------------5p3----
A|--5-0-0-0-3-0-0-0-7-0-0-0-3-0-0-0-8--0-0-0-3----------------------------
E|------------------------------------------------------------------------
                                              <A.H.>...................
[ Tab from: http://www.guitartabs.cc/tabs/d/dio/stand_up_and_shout_tab_ver_2.html ]
5) Bridge/Chorus 2
e|----------------------------------------------------------
B|----------------------------------------------------------
G|----------------------------------------------------------
D|--7-------5-------9-------5-------10----5-----------------
A|--5-0-0-0-3-0-0-0-7-0-0-0-3-0-0-0-8-0-0-3-0-0-0-5-0-0-0---
E|------------------------------------------------3---------
   Chorus 2 (Cont.)
e|-------------------------------------------------------------------
B|-------------------------------------------------------------------
G|-------------------------------------<5b>-<5b>-<5b>----------------
D|--5-------7-------5-------9-------10-----------------5-------------
A|--3-0-0-0-5-0-0-0-3-0-0-0-7-0-0-0-8--------------------7-5-3\2~~---
E|-------------------------------------------------------------------
                                       <A.H.>........
Solo 1 (Beggining)
e|--------------------------------------------------------------
B|--12h13p12--/13h14p13--/14h15p14--/15h16p15-------------------
G|--------------------------------------------------------------
D|--------------------------------------------------------------
A|---------------------------------------------\<2><5~~~~>------
E|--------------------------------------------------------------
                                                A.H...... 

5) Closing (Rythm)
e|------------------------------------------------------
B|------------------------------------------------------
G|----7--------------5--------------2---------------2---
D|----7--------------5--------------2---------------2---
A|----5--------------3--------------0---------------0---
E|------------------------------------------------------

  ________________________
 |=====Song Structure=====|
 |========================|
 |Intro (3x)              |
 |Intro 2 (1x)            |
 |Verse (4x)              |
 |Bridge-Chorus (1x)      |
 |Verse (5x)              |
 |Bridge-Chorus (1x)      |
 |Verse (2x)              |
 |Solo 1                  |
 |Verse (2x)              |
 |Bridge/Chorus 2 (1x)    |
 |Verse (1x)              |
 |Pre-solo                |
 |Solo 2                  |
 |Closing (1x)            |
 |________________________|

Some notes:
I'm still working on the solos. Actually they aren't easy since Vivian Campbell uses and abuses
the Artificial Harmonics, therefore it takes a lot of time to try out every fucking string and
fret to find out what he's playing.
marcoscat@yahoo.com
Comments