Dio - Stand Up And Shout Chords & Tabs

 

Stand Up And Shout Chords & Tabs

Dio Chords & Tabs

Version: 1 Type: Tab 1 rating
1 star 2 stars 3 stars 4 stars 5 stars
comments

Stand Up And Shout Tab

Artist: Dio
Title: Stand Up And Shout
Written by: Ronnie James Dio & Jimmy Bain
Transcribed by: Mark James Cullen B.A., Bray, Co. Wicklow, Ireland.

From the album Holy Diver.  Standard tuning

Fig 1.   
                                                               					      X2	
p.m.-----]                                       ~~                                                         ~~         
E---------------------------------------------------------------------------------------------------
B---------------------------------------------------------------------------------------------------	
G-----------5------5------5-----4-----(4)------------5----5-----5-p-4-----7-----(7)-----------
D-----------5------5------5-----4-----(4)------------5----5-----5-p-4-----7-----(7)-----------
A----0-0-------0------0-----0----------------0-0-------0-----0---------0-----------------------
E---------------------------------------------------------------------------------------------------
                                                                                                                           
								                              X2
p.m.-----]                                      ~~                                                     ~~         
E--------------------------------------------------------------------------------------------------
B-------------------------------------------------------------------------------------------- -----	
G-----------5------5------5-----4-----4------------5----5----5-p-4-----7-----7---------------
D-----------5------5------5-----4-----4------------5----5----5-p-4-----7-----7---------------
A----0-0-------0------0-----0----------------0-0-----0----0---------0-------------------------
E--------------------------------------------------------------------------------------------------


  _______________________________________________
[ 2.                                          let ring                   pick scrape
  E-------------------------------------------------------------------------------
  B-------------------------------------------------------------------------------
  G--------5----5-----5-p-4------7---------------------------------------------
  D--------5----5-----5-p-4------7---------------------x-\---------------------
  A---0-0----0----0----------0--------------------------x-\--------------------
  E-------------------------------------------------------------------------------

First Verse

p.m.-----]                                      ~~                                                     ~~         x4
E---------------------------------------------------------------------------------------------|-----
B-------------------------------------------------------------------------------------------- |-----	
G-----------5------5------5-----4-----4------------5----5----5-p-4-----7-----7-------o-|------
D-----------5------5------5-----4-----4------------5----5----5-p-4-----7-----7-------o-|-----
A----0-0-------0------0-----0----------------0-0-----0--- 0---------0--------------------|----
E---------------------------------------------------------------------------------------------|----





Next comes the ‘you’ve got desire, so let it out. You’ve got the power, stand up and shout,’ part:

E--------------------------------------------------------------------------------------------------
B--------------------------------------------------------------------------------------------------
G--------7--7---------------5--5---------------9--9--------------5--5---------------10--10---
D--------7--7---------------5--5---------------9--9--------------5--5---------------10--10---
A---------------0-0-0-0-0--------0-0-0-0-0--------0-0-0-0-0--------0-0-0-0-0-------------
E--------------------------------------------------------------------------------------------------
                                                       W/ pinched harmonics 
                                                  |------------------------------------------------|
                                                                                                              ~~
E-----------------------------------------------------------------------------------------
B-----------------------------------------------------------------------------------------
G-----------------5--5-------------------------------------------------------------------
D-----------------5--5----------------5---3------5---3-----5---3----------------------
A----0-0-0-0-0--------0-0-0-0-0-----------5----------5----------5-4-3----1--------
E-----------------------------------------------------------------------------------------

Chorus                                                                                                                          
								                              X2
p.m.-----]                                      ~~                                                     ~~         
E--------------------------------------------------------------------------------------------------
B-------------------------------------------------------------------------------------------- -----	
G-----------5------5------5-----4-----4------------5----5----5-p-4-----7-----7---------------
D-----------5------5------5-----4-----4------------5----5----5-p-4-----7-----7---------------
A----0-0-------0------0-----0----------------0-0-----0----0---------0-------------------------
E--------------------------------------------------------------------------------------------------

Second Verse,etc. same as the first verse.

Second chorus
								                              X2
p.m.-----]                                      ~~                                                     ~~         
E--------------------------------------------------------------------------------------------------
B-------------------------------------------------------------------------------------------- -----	
G-----------5------5------5-----4-----4------------5----5----5-p-4-----7-----7---------------
D-----------5------5------5-----4-----4------------5----5----5-p-4-----7-----7---------------
A----0-0-------0------0-----0----------------0-0-----0----0---------0-------------------------
E--------------------------------------------------------------------------------------------------

______________________________________________
[ 2.                                          let ring                   pick scrape
  E-------------------------------------------------------------------------------
  B-------------------------------------------------------------------------------
  G--------5----5-----5-p-4------7---------------------------------------------
  D--------5----5-----5-p-4------7---------------------x-\---------------------
  A---0-0----0----0----------0--------------------------x-\--------------------
  E-------------------------------------------------------------------------------
[ Tab from: http://www.guitartabs.cc/tabs/d/dio/stand_up_and_shout_tab.html ]
At the point with the pick scrape there is an over dub marking the beginning of the solo. Then there is the following rhythm figure for the guitar solo:
p.m.-----------------------------|              p.m.-------------------------|
E-------------------------------------||---------------------------------------------
B-------------------------------------||----------------------------------------------
G----4-4-4-4--4-4-4-4--4-4-4-4\-||-o-7--7\---4-4-4--4-4-4-4--4-4-4-4\------
D----4-4-4-4--4-4-4-4--4-4-4-4\-||-o-7--7\---4-4-4--4-4-4-4--4-4-4-4\-------
A----2-2-2-2--2-2-2-2--2-2-2-2\-||----5--5\---2-2-2--2-2-2-2--2-2-2-2\-------
E-------------------------------------||-----------------------------------------------
                                                             X4                
             p.m.-------------------------|   
E----------------------------------------------||-----
B----------------------------------------------||-----
G---2--2\---4-4-4--4-4-4-4--4-4-4-4\--o-||-----
D---2--2\---4-4-4--4-4-4-4--4-4-4-4\--o-||-----
A---0--0\---2-2-2--2-2-2-2--2-2-2-2\---- ||-----
E----------------------------------------------||-----
­­­­­­­­­­­­­­­­­­________________________________________
|4.
                                                                                      ~~
E--------------------------------------------------------------------
B--------------------------------------------------------------------
G----7--7\----4-4-4--4-4-4-4--4\3--2------5----5-----5--5----
D----7--7\----4-4-4--4-4-4-4--4\3--2------5----5-----5--5----
A----5--5\----2-2-2--2-2-2-2--2\1--0---------0-----0---------- 
E--------------------------------------------------------------------
                                                   ~~ 
E-------------------------------------------------------
B-------------------------------------------------------
G---------5----5---5-p-4-----7----7-----------------
D---------5----5---5-p-4-----7----7-----------------
A----0-0----0---0---------0--------------------------
E-------------------------------------------------------
                                           ~~                                                 ~~
E---------------------------------------------------------------------------------------
B---------------------------------------------------------------------------------------
G---------5----5----5----4---4-----------5----5----5-p-4-----7----7-----------------
D---------5----5----5----4---4-----------5----5----5-p-4-----7----7------------
A----0-0----0----0----0------------0-0-----0----0---------0---------------------
E-----------------------------------------------------------------------------------

Third Verse
								                              X2
p.m.-----]                                      ~~                                                     ~~         
E--------------------------------------------------------------------------------------------------
B-------------------------------------------------------------------------------------------- -----	
G-----------5------5------5-----4-----4------------5----5----5-p-4-----7-----7---------------
D-----------5------5------5-----4-----4------------5----5----5-p-4-----7-----7---------------
A----0-0-------0------0-----0----------------0-0-----0----0---------0-------------------------
E--------------------------------------------------------------------------------------------------
This next bit has a variation in it:

E--------------------------------------------------------------------------------------------------
B--------------------------------------------------------------------------------------------------
G--------7--7---------------5--5---------------9--9--------------5--5---------------10--10---
D--------7--7---------------5--5---------------9--9--------------5--5---------------10--10---
A---------------0-0-0-0-0--------0-0-0-0-0--------0-0-0-0-0--------0-0-0-0-0-------------
E--------------------------------------------------------------------------------------------------

E--------------------------------------------------------------------------------------------
B-------------------------------------------------------------------------------------------
G-----------------5--------------12--12---------------5--5---------------7--7----------
D-----------------5--------------12--12---------------5--5---------------7--7-----------
A----0-0-0-0-0----0-0-0-0-0-----------0-0-0-0-0---------0-0-0-0-0------------------
E-------------------------------------------------------------------------------------------

E-------------------------------------------------------------------------------------------
B--------------------------------------------------------------------------------------------
G-----------------5--5--------------9--9---------------5--5---------------10--10-----------
D-----------------5--5--------------9--9---------------5--5---------------10--10------------
A----0-0-0-0-0-------0-0-0-0-0---------0-0-0-0-0--------0-0-0-0-0-------------------
E--------------------------------------------------------------------------------------------

                                                       W/ pinched harmonics 
                                                  |------------------------------------------------|
                                                                                                              ~~
E-----------------------------------------------------------------------------------------
B-----------------------------------------------------------------------------------------
G-----------------5--5-------------------------------------------------------------------
D-----------------5--5----------------5---3------5---3-----5---3----------------------
A----0-0-0-0-0--------0-0-0-0-0-----------5----------5----------5-4-3----1*--------
E-----------------------------------------------------------------------------------------
                                                                                                         *W/extra long pause

Outro w/ solo overdubbed

                                                                                                                           
								                              X8
p.m.-----]                                      ~~                                                     ~~         
E--------------------------------------------------------------------------------------------------
B-------------------------------------------------------------------------------------------- -----	
G-----------5------5------5-----4-----4------------5----5----5-p-4-----7-----7---------------
D-----------5------5------5-----4-----4------------5----5----5-p-4-----7-----7---------------
A----0-0-------0------0-----0----------------0-0-----0----0---------0-------------------------
E--------------------------------------------------------------------------------------------------





______________________________________________
[ 8.                                         let ring                         pick scrapes     
  E-------------------------------------------------------------------------------
  B-------------------------------------------------------------------------------
  G--------5----5-----5-p-4------7---------------5------------------------------
  D--------5----5-----5-p-4------7---------------5--------x\-----------------
  A---0-0----0----0----------0--------------------3--------x\------------------
  E-------------------------------------------------------------------------------
            
          W/tremolo picking
E--------------------------------------------           ---------------------------------||
B--------------------------------------------           ---------------------------------||
G-----2--------------------------------------          ----2----------------------------||
D-----2--------------------------------------          ----2----------------------------||
A-----0---------------------------------------         ----0--------------------------- ||
E----------------------------------------------         ---------------------------------||

I think that about covers it. One little correction though. The parts in the main riff, you know, where it goes ----5-----4--4--    or  ----- 5-p-4-----7--7--.  Well, it 
				 -----5-----4--4--         ------5-p-4-----7--7--  
                                                 ---0----0--------           ---0----------0--------
may actually be more like ------5----4--4---4-4-- and  ------5-p-4--- 7--7----7-7----
			         ------5----4--4---4-4--         ------ 5-p-4---7---7---7-7----
			         ---0----0----------------         ---0----------------------------.
It’s played so fast you’d hardly notice it anyway but you might want to use those bits just the same for the sake of accuracy.  
I’m afraid the guitar solo can’t be transcribed except by one of those publishing companies.  You’d need that kind of expertise to get it right. But hopefully the rhythm guitar parts that go with it will help you to improvise a solo of your own as I do when I play this song.
Comments