Dio - Rainbow In The Dark Chords & Tabs

 

Rainbow In The Dark Chords & Tabs

Dio Chords & Tabs

Version: 1 Type: Bass Tab 0 ratings
1 star 2 stars 3 stars 4 stars 5 stars
comments

Rainbow In The Dark Bass Tab

                  RAINBOW IN THE DARK 
          (Ronnie James Dio, Vivain Cambell) 
                 As Preformed By, DIO
                                                                                      
Intro
------
------
------
-3----
 Let Ring
[ Tab from: http://www.guitartabs.cc/tabs/d/dio/rainbow_in_the_dark_btab.html ]
Main Riff
---------------------------------------
---------------------------------------
----------------------------0-3-2-0----
-5---1-1-1-3--5---1-1-1-3-----------3--

Bridge
----------------------|-----
----------------------|-----
----------------------|-----
-0--0-0-0-0-1---1--1--|--3--

Solo
----------------
----------------
-0r--0r-0r--0r--
----------------
Comments