Dio - Lock Up The Wolves Chords & Tabs

 

Lock Up The Wolves Chords & Tabs

Dio Chords & Tabs

Version: 1 Type: Tab 0 ratings
1 star 2 stars 3 stars 4 stars 5 stars
comments

Lock Up The Wolves Tab

Dio:Lock up the wolves

Tuning:Standard EADGBe

Heres the 3 different things in the begining.

e----------------------------------|
B----------------------------------|
G----------------------------------|
D-------------------9-9------------|     Listen to the song to hear how many times
A----------2--2-----7-7----2-------|      he repeats.
E----------0--0------------0-------|


This is the second part of the intro.


[ Tab from: http://www.guitartabs.cc/tabs/d/dio/lock_up_the_wolves_tab.html ]
e--------------------|
B--------------------|
G--------------------|
D------------7-7-----|
A---2--2-----5-5---2-|
E---0--0-----------0-|


And the last part of the begining before he starts to sing.

e-------------------|
B-------------------|
G-------------------|
D------------5-5----|
A--2--2------3-3--2-|
E--0--0-----------0-|

Well thats the intro...its a cool song to play and not that hard because its a kinda 
song....ShaneS.
Comments