Dio - Last In Line Chords & Tabs

 

Last In Line Chords & Tabs

Dio Chords & Tabs

Version: 1 Type: Tab 0 ratings
1 star 2 stars 3 stars 4 stars 5 stars
comments

Last In Line Tab

By Ronnie James Dio
Last in line

Intro  Gtr I
|-----------|---0----------0-----|---------------------|---0--------0---3--|
|-------1-3-|-5----3-(3)-----3---|-1---3---1-(1)---1-3-|-5----3-(3)---0-3--|
|-------0-0-|-5----4-(4)---------|---0---0-------0-0-0-|-5----4-(4)-----0--|
|-----------|-5----5-(5)---------|---------------------|-5----5-(5)-----7--|
|-------0-2-|-3----2-(2)-2-----2-|-0---2---0-(0)---0-2-|-3----2-(2)--------|
|-----------|--------------------|---------------------|-------------------|


              2/4     4/4
|-(3)--------|-------|---0----------0-----|---------------------|
|-(3)--------|-1--3--|-5----3-(3)-----3---|-1---3---1-(1)---1-3-|
|-(0)--------|-0--0--|-5----4-(4)---------|---0---0-------0-0-0-|
|-(7)--------|-------|-5----5-(5)---------|---------------------|
|------------|-0--2--|-3----2-(2)-2-----2-|-0---2---0-(0)---0-2-|
|------------|-------|--------------------|---------------------|


                                                       Verse
|---0--------0----|-------------------|--------------||------------0------|
|-5----3-(3)----1-|-(1)---0-(0)-----1-|-(1)------1-3-||-5---3-(3)----3----|
|-5----4-(4)----0-|-(0)---------0-2---|----------0-0-||-5---4-(4)---------|
|-5----5-(5)----3-|-(3)---------------|--------------||-5---5-(5)---------|
|-3----2-(2)------|-------------------|----------0-2-||-3---2-(2)------2--|
|-----------------|-------------------|--------------||-------------------|


                                                      2/4
|---------------------|---0--------0--3-|-(3)--------|-(3)------|
|-1---3---1-(1)---1-3-|-5----3-(3)----3-|-(3)--------|-(3)--1-3-|
|---0---0-------0-0-0-|-5----4-(4)----0-|-(0)--------|-(0)--0-0-|
|---------------------|-5----5-(5)----7-|-(7)--------|-(7)------|
|-0---2---0-(0)---0-2-|-3----2-(2)------|------------|------0-2-|
|---------------------|-----------------|------------|----------|


 4/4
|---0----------0-----|---------------------|-------------|-------------||
|-5----3-(3)-----3---|-1---3---1-(1)---1-3-|-5--3--1-0---|-(0)---------||
|-5----4-(4)---------|---0---0-------0-0-0-|-------------|-------------||
|-5----5-(5)---------|---------------------|-------------|-------------||
|-3----2-(2)-2-----2-|-0---2---0-(0)---0-2-|-3--2--0-----|-------------||
|--------------------|---------------------|---------3---|-(3)---------||


 Interlude
  Gtr II
                                        PM   PM|
|------------------|------------------|-----------------------|
|-------8-(8)-8--7-|-------6-(6)-6--5-|------------8-(8)-8--7-|
|-------7-(7)-7--7-|-------5-(5)-5--5-|------------7-(7)-7--7-|
|-7-7-7-5-(5)-5--4-|-7-7-7-3-(3)-3--2-|---7------7-5-(5)-5--4-|
|-7-7-7-5-(5)-5--5-|-7-7-7-3-(3)-3--3-|----------7-5-(5)-5--5-|
|-5-5-5------------|-5-5-5------------|-5----5-5-5------------|


  PM   PM|                                   PM   PM|
|-----------------------|------------------|-----------------------|
|------------6-(6)-6--5-|-------8-(8)-8--7-|------------6-(6)-6--5-|
|------------5-(5)-5--5-|-------7-(7)-7--7-|------------5-(5)-5--5-|
|---7------7-3-(3)-3--2-|-7-7-7-5-(5)-5--4-|---7------7-3-(3)-3--2-|
|----------7-3-(3)-3--3-|-7-7-7-5-(5)-5--5-|----------7-3-(3)-3--3-|
|-5----5-5-5------------|-5-5-5------------|-5----5-5-5------------|


  PM   PM|                PM   PM|      ~
|-----------------------|-------------------------||
|------------8-(8)-8--7-|-------------------------||
|------------7-(7)-7--7-|-------------------------||
|---7------7-5-(5)-5--4-|---7------7--------------||
|----------7-5-(5)-5--5-|----------7--5---5-3-2---||
|-5----5-5-5------------|-5----5-5-5----3-------3-||


 Verse
                          PM----|     PM|   PM|   PM|   PM|
|-------------|-------------------|-------------------------|
|-------------|-------------------|-------------------------|
|-2-2---2-2---|-2-2---2-2---------|-------------------------|
|-2-2---2-2---|-2-2---2-2---------|-5-----5-----5-----5-----|
|-0-0---0-0---|-0-0---0-0-0-3-2---|-5-----5-----5-----5-----|
|-------------|-----------------5-|-3-3-3-3-3-3-3-3-3-3-3-3-|


               ~~~    ~~~~~~~~                          PM----|
|-----------------------------|-------------|--------------------|
|-----------------------------|-------------|--------------------|
|-2-2-2-2-----[2]-------------|-2-2---2-2---|-2-2---2-2----------|
|-2-2-2-2---------------------|-2-2---2-2---|-2-2---2-2----------|
|-0-0-0-0-3p0-----3p0---------|-0-0---0-0---|-0-0---0-0-0-3-2----|
|---------------------3b5==3r-|-------------|-----------------5--|


                            \6
    PM|   PM|   PM|   PM|
|-------------------------|---------------|-------------|
|-------------------------|---------------|-------------|
|-------------------------|---------------|-2-2---2-2---|
|-5-----5-----5-----5-----|---------------|-2-2---2-2---|
|-5-----5-----5-----5-----|-0-------------|-0-0---0-0---|
|-3-3-3-3-3-3-3-3-3-3-3-3-|---------/15\--|-------------|


            PM----|     PM|   PM|   PM|   PM|          PM----|
|-------------------|-------------------------|-----------------||
|-------------------|-------------------------|-----------------||
|-2-2---2-2---------|-------------------------|-2---------------||
|-2-2---2-2---------|-5-----5-----5-----5-----|-2---------------||
|-0-0---0-0-0-3-2---|-5-----5-----5-----5-----|-0------5-3-2----||
|-----------------5-|-3-3-3-3-3-3-3-3-3-3-3-3-|--------------3--||


 Chorus
  $
  $$
               PM----|                PM----|                PM----|
|----------------------|----------------------|----------------------|
|----------------------|----------------------|----------------------|
|----------------------|----------------------|----------------------|
|-3-3-3-3-3-3----------|-3-3-3-3-3-3----------|-5-5-5-5-5-5----------|
|-3-3-3-3-3-3--5-3-2---|-3-3-3-3-3-3--5-3-2---|-5-5-5-5-5-5--5-3-2---|
|-1-1-1-1-1-1--------3-|-1-1-1-1-1-1--------5-|-3-3-3-3-3-3--------5-|


                                              To Dbl. Coda
               PM--|
|--------------------|------------------|------------------|
|--------------------|-------8-8-8-7-7--|-------6-6-6-5-5--|
|--------------------|-------7-7-7-7-7--|-------5-5-5-5-5--|
|-5-5-5-5-5-5--5-5-6-|-7-7-7-5-5-5-4-4--|-7-7-7-3-3-3-2-2--|
|-5-5-5-5-5-5--5-5-6-|-7-7-7-5-5-5-5-5--|-7-7-7-3-3-3-3-3--|
|-3-3-3-3-3-3--3-3-4-|-5-5-5------------|-5-5-5------------|


                                               To Coda
  PM   PM|                PM   PM|      ~
|-----------------------|------------------------------||
|------------8-8-8-7-7--|------------------------------||
|------------7-7-7-7-7--|------------------------------||
|---7------7-5-5-5-4-4--|---7------7-------------------||
|----------7-5-5-5-5-5--|----------7--5---5-3-2h3p2----||
|-5----5-5-5------------|-5----5-5-5----3-----------3--||


 Verse
                          PM----|     PM|   PM|   PM|   PM|
|-------------|-------------------|-------------------------|
|-------------|-------------------|-------------------------|
|-2-2---2-2---|-2-2---2-2---------|-------------------------|
|-2-2---2-2---|-2-2---2-2---------|-5-----5-----5-----5-----|
|-0-0---0-0---|-0-0---0-0-0-3-2---|-5-----5-----5-----5-----|
|-------------|-----------------5-|-3-3-3-3-3-3-3-3-3-3-3-3-|


               ~~~    ~~~~~~~~                          PM----|
|-----------------------------|-------------|--------------------|
|-----------------------------|-------------|--------------------|
|-2-2-2-2-----[2]-------------|-2-2---2-2---|-2-2---2-2----------|
|-2-2-2-2---------------------|-2-2---2-2---|-2-2---2-2----------|
|-0-0-0-0-3p0-----3p0---------|-0-0---0-0---|-0-0---0-0-0-3-2----|
|---------------------3b5==3r-|-------------|-----------------5--|


                               D.S. al Coda
    PM|   PM|   PM|   PM|          PM----|
|-------------------------|-----------------||
|-------------------------|-----------------||
|-------------------------|-2---------------||
|-5-----5-----5-----5-----|-2---------------||
|-5-----5-----5-----5-----|-0------5-3-2----||
|-3-3-3-3-3-3-3-3-3-3-3-3-|--------------3--||


 Guitar Solo
  &
  Gtr III
                      ~~~         PM------------------------|
|-------------------------------|---------------------------4-5h7p5p4-|
|-------------------------------|-----------------------5-6-----------|
|-------------2s4-2-------------|-------------------5-7---------------|
|-----1s2-0---------2-----------|-------------3-6-7-------------------|
|-----------2---------3b5-------|-------3-5-7-------------------------|
|-------------------------------|-1-4-5-------------------------------|
|
| Gtr II
|                     PM------|                           PM------|
|-------------------------------|-------------------------------------|
|-------------------------------|-------------------------------------|
|-------------------------------|-------------------------------------|
|-3-3---------------------------|-3---3-------------------------------|
|-3-3-----------------5---3-2---|-3---3-------------------5-3-2-------|
|-1-1-------------------------3-|-1---1---------------------------3---|


                                ~                   ~~~
|-4--------------------------------|-----------------------------------|
|---6-8p6p5---5--------------------|---------------------------8h10h12-|
|-----------7---5-7-5-4h5p4---4----|-----------------------------------|
|---------------------------7---5--|-5b7====(5)r(5)-5b7----------------|
|----------------------------------|-----------------------------------|
|----------------------------------|-----------------------------------|
|
|                                                        PM----|
|-------------------------------3--|-----------------------------------|
|-------------------------------3--|-----------------------------------|
|-2---2-------------------------0--|-2----2----------------------------|
|-2---2-------------------------0--|-2----2----------------------------|
|-0---0-------------------------x--|-0----0--------------5-3-2---------|
|-------------------------------3--|---------------------------3-------|


|-8h10h12p10p8----8--------------------------------------------------|
|--------------12---12p10p8-12p10p8-10b12-(10)--10b13r(10)b13r==(10)-|
|--------------------------------------------------------------------|
|--------------------------------------------------------------------|
|--------------------------------------------------------------------|
|--------------------------------------------------------------------|
|
|                                                PM-------------|
|--------------------------------------------------------------------|
|--------------------------------------------------------------------|
|--------------------------------------------------------------------|
|-3----------3-------------------------------------------------------|
|-3----------3-----------------------------------5------3-----2------|
|-1----------1----------------------------------------------------3--|


    ~~~~~~~~~     ~~~~~~
|-----------------------------|
|-8---------------------------|
|---9---(9)s7-7h9-7-(7)---5-7-|
|-----------------------------|
|-----------------------------|
|-----------------------------|
|
|                    PM-----|
|-----------------------------|
|-----------------------------|
|-----------------------------|
|-3---3-----------------------|
|-3---3--------------5--3-2---|
|-1---1---------------------3-|

[ Tab from: http://www.guitartabs.cc/tabs/d/dio/last_in_line_tab.html ]
                         ~         PM---------------
|----------------------|---------------------------|
|----------------------|---------------------------|
|-5s4---(4)p0-(0)------|-----------4-----4-----5---|
|----------------------|-------------5-----5-----5-|
|--------------------5-|-7----(7)\-----7-----7-----|
|----------------------|---------------------------|
|
|                                          PM-------
|------------------3---|---------------------------|
|------------------3---|---------------------------|
|-2---2------------0---|-2-2-----------------------|
|-2---2------------0---|-2-2-----------------------|
|-0---0------------x---|-0-0---------------5-3-2---|
|------------------3---|-------------------------3-|


 -------|
|-------------------------------------|
|-------------------------------------|
|---4-----5-----7-----5-----4---------|
|-----5-----5-----5-----5-----5-------|
|-7-----7-----7-----7-----7-------7---|
|-------------------------------------|
|
|-------|     PM--|   PM----|
|-------------------------------------|
|-------------------------------------|
|-------------------------------------|
|---------3---------3-----------------|
|---------3---------3-----5-3-2h3p2p0-|
|-1---1-1-1---1-1-1-1-1-1-------------|


  PM------------|
|-------------------------------------------|
|---------5-----5-6h8p6p5-5-----------------|
|-5-----------5-------------7b8-7p5-----7---|
|-----4-7---7-------------------------7---7-|
|---7---------------------------------------|
|-------------------------------------------|
|
| PM----|     PM--|       PM-----------------
|-------------------------------------------|
|-------------------------------------------|
|-------------------------------------------|
|---------3-----------3---------------------|
|---------3-----------3---------5---3---2---|
|-1---1-1-1---1-1-1---1---1-1-------------3-|


|-----------5-5---7---5---------5-----7-|
|-----------5-5-8---8---5-8-------5-8---|
|-5-7b9-(7)-----------------7b9---------|
|---------------------------------------|
|---------------------------------------|
|---------------------------------------|
|
|-----------|     PM--|   PM|
|-------------------------------3-------|
|-------------------------------3-------|
|-------------2---------2-------0-------|
|-------------2---------2-------0-------|
|-0------0--0-0---0-0-0-0-0-0---x-------|
|-------------------------------3-------|


|---5------------------------------------------12p8-|
|-8---5-8-----5------------------------------0------|
|---------7b9---[7]b9-[7]b9-7p5-----7---5/----------|
|---------------------------------7---7-------------|
|---------------------------------------------------|
|---------------------------------------------------|
|
| PM  PM|        PM---------|           PM-----|
|---------------------------------------------------|
|---------------------------------------------------|
|---2-----2---------------------2-------------------|
|---2-----2---------------------2-------------------|
|-0-0-0-0-0------0-----0----0---0-------5--3-2------|
|-----------------------------------------------3---|


|----12p8----12p==8------12p8----12p8----12p==8------12p8----12p8------12p==8------12p8--------------|
|-10------10--------10--------10------10--------10--------10--------10--------10--------10S12-13-15--|
|----------------------------------------------------------------------------------------------------|
|----------------------------------------------------------------------------------------------------|
|----------------------------------------------------------------------------------------------------|
|----------------------------------------------------------------------------------------------------|
|
|  PM------------------|                    PM------------|               PM---------------------|
|----------------------------------------------------------------------------------------------------|
|----------------------------------------------------------------------------------------------------|
|----------------------------------------------------------------------------------------------------|
|------------------------------3----------------------------------3----------------------------------|
|------------------------------3----------------------------------3----------------------5--3--2-----|
|--1------------1------1-------1------------1------1-------1------1-------1------1----------------3--|


                                                                                 ~~
|-12-15p13p12-15p==13p12------12----------------------------------------------------------|
|--------------------------15----15-13p12-15-x-13h15p13----12--------------------------0--|
|-------------------------------------------------------14----14-12h14p12----12-14--------|
|-------------------------------------------------------------------------14--------------|
|-----------------------------------------------------------------------------------------|
|-----------------------------------------------------------------------------------------|
|
|  PM--------------------|                   PM---------|            PM----------------|
|-----------------------------------------------------------------------------------------|
|-----------------------------------------------------------------------------------------|
|-----------------------------------------------------------------------------------------|
|---------------------------------3----------------------------3--------------------------|
|---------------------------------3----------------------------3-----------------5-3-2----|
|--1-------------1-------1--------1----------1-----1-----1-----1-----1-----1-----------3--|


|-------------------------------------------------------------------------------------------|
|---------------------------------------10---------------10---------------10----10----10-12-|
|-------------------------------9-10-12----12-10-9-10-12----12-10-9-10-12----12----12-------|
|-12-10-9----9-10-12-10-9-10-12-------------------------------------------------------------|
|---------12--------------------------------------------------------------------------------|
|-------------------------------------------------------------------------------------------|
|
|            PM---|                PM---|                 PM---|                 PM---|
|-------------------------------------------------------------------------------------------|
|-------------------------------------------------------------------------------------------|
|-------------------------------------------------------------------------------------------|
|--5--------------------5----------------------5---------------------5----------------------|
|--5--------------------5----------------------5---------------------5----------------------|
|--3---------3-----3----3----------3-----3-----3----------3-----3----3-----------3-----3----|


|----10----------------10----10----10-12-13-12-10-12-13-12-10-12-13-12-10-12-13-12-10-12-13-12-12-|
|-13----13-12-10-12-13----13----13----------------------------------------------------------------|
|-------------------------------------------------------------------------------------------------|
|-------------------------------------------------------------------------------------------------|
|-------------------------------------------------------------------------------------------------|
|-------------------------------------------------------------------------------------------------|
|
|--3-----------3-----------3-----------3-----------3-----------3-----------3-----------3----------|
|--3-----------3-----------3-----------3-----------3-----------3-----------3-----------3----------|
|--0-----------0-----------0-----------0-----------0-----------0-----------0-----------0----------|
|--0-----------0-----------0-----------0-----------0-----------0-----------0-----------0----------|
|--x-----------x-----------x-----------x-----------x-----------x-----------x-----------x----------|
|--3-----------3-----------3-----------3-----------3-----------3-----------3-----------3----------|


   ~~~~~
|-15b17-------------17-15-12-15b20==(15)-|
|----------------------------------------|
|----------------------------------------|
|----------------------------------------|
|----------------------------------------|
|----------------------------------------|
|
|----------------------------------------|
|-----------8-(8)-7--7-------------------|
|-----------7-(7)-7--7-------------------|
|--7----7-7-5-(5)-4--4-------------------|
|--7----7-7-5-(5)-5--5-------------------|
|--5----5-5------------------------------|


|-(15)r(15)p12----12---------------------------------|
|--------------15----15-13----15-13---(13)-(13)s==0--|
|--------------------------14------------------------|
|----------------------------------------------------|
|----------------------------------------------------|
|----------------------------------------------------|
|
|----------------------------------------------------|
|-----------------------------------6--(6)---5--5----|
|-----------------------------------5--(5)---5--5----|
|---7-----------7-----------7-------3--(3)---2--2----|
|---7-----------7-----------7-------3--(3)---3--3----|
|---5-----------5-----------5------------------------|


|-8---8-8---8-8-8--8--8-8-8-|-8-----------------------||
|-x---x-x---x-x-x--x--x-x-x-|-x-----------------------||
|-5---5-5---5-5-5--5--5-5-5-|-5-----------------------||
|---------------------------|-------------------------||
|---------------------------|-------------------------||
|---------------------------|-------------------------||
|
| PM    PM|                   PM   PM|      ~
|---------------------------|-------------------------||
|-------------8---(8)-7-7---|-------------------------||
|-------------7---(7)-7-7---|-------------------------||
|---7-------7-5---(5)-4-4---|---7------7--------------||
|-----------7-5---(5)-5-5---|----------7--5---5-3-2---||
|-5-----5-5-5---------------|-5----5-5-5----3-------3-||


 Verse
  Gtr II
                  ~                  PM----|     PM|   PM|   PM|   PM|
|-------------------|------------------------|--------------------------|
|-------------------|------------------------|--------------------------|
|-2-2--------2-2----|-2-2--------2-2---------|--------------------------|
|-2-2--------2-2----|-2-2--------2-2---------|-5-----5-----5-----5------|
|-0-0--3p0---0-0----|-0-0--3p0---0-0-0-3-2---|-5-----5-----5-----5------|
|----------3------3-|----------3-----------5-|-3-3-3-3-3-3-3-3-3-3-3-3--|


               ~~~                              ~                  PM----|
|-----------------------------|-------------------|------------------------|
|-----------------------------|-------------------|------------------------|
|-2-2-2-2-----[2]-------------|-2-2--------2-2----|-2-2--------2-2---------|
|-2-2-2-2---------------------|-2-2--------2-2----|-2-2--------2-2---------|
|-0-0-0-0-3p0-----3p0---------|-0-0--3p0---0-0----|-0-0--3p0---0-0-0-3-2---|
|---------------------3b5==3r-|----------3------3-|----------3-----------5-|


                        D.S.S. al Dbl. Coda
    PM|   PM|   PM|   PM|          PM----|
|-------------------------|-----------------||
|-------------------------|-----------------||
|-------------------------|-2---------------||
|-5-----5-----5-----5-----|-2---------------||
|-5-----5-----5-----5-----|-0------5-3-2----||
|-3-3-3-3-3-3-3-3-3-3-3-3-|--------------3--||


   Outro
    &&
    PM   PM|                PM   PM|
||------------------------|------------------------|
||o------------8-8-8-7-7--|------------6-6-6-5-5---|
||-------------7-7-7-7-7--|------------5-5-5-5-5---|
||----7------7-5-5-5-4-4--|---7------7-3-3-3-2-2---|
||o----------7-5-5-5-5-5--|----------7-3-3-3-3-3---|
||--5----5-5-5------------|-5----5-5-5-------------|


  PM   PM|                PM   PM|
                                                 7x
|-----------------------|------------------------||
|------------8-8-8-7-7--|------------6-6-6-5-5--o||
|------------7-7-7-7-7--|------------5-5-5-5-5---||
|---7------7-5-5-5-4-4--|---7------7-3-3-3-2-2---||
|----------7-5-5-5-5-5--|----------7-3-3-3-3-3--o||
|-5----5-5-5------------|-5----5-5-5-------------||



Comments