Dio - Holy Diver Chords & Tabs

 

Holy Diver Chords & Tabs

Dio Chords & Tabs

Version: 4 Type: Tab 0 ratings
1 star 2 stars 3 stars 4 stars 5 stars
comments

Holy Diver Tab

This is the song Holy Diver by DIO of the album Holy Diver(including an attempt at the solo)


E||---------------------------|--------------------------|
B||---------------------------|--------------------------|
G||--6--6-6-6--6-6-6--8--9\---|--6--6-6-6--6-8-9\---4----|
D||--6--6-6-6--6-6-6--8--9\---|--6--6-6-6--6-8-9\---4----|
A||--4--4-4-4--4-4-4--6--7\---|--4--4-4-4--4-6-7\---2----|
E||---------------------------|--------------------------|


                                                                             
--------------------------|---------------------|---------------------------|
--------------------------|---------------------|---------------------------|
--6--6-6-6--6-8-9\---4----|--6---4---6----------|--6--6-6-6--6-6-6--8--9\---|
--6--6-6-6--6-8-9\---4----|--6---4---6----------|--6--6-6-6--6-6-6--8--9\---|
--4--4-4-4--4-6-7\---2----|--4---2---4----------|--4--4-4-4--4-4-4--6--7\---|
--------------------------|---------------------|---------------------------|


                                                      
--------------------------|--------------------------|
--------------------------|--------------------------|
--6--6-6-6--6-8-9\---4----|--6--6-6-6--6-8-9\---4----|
--6--6-6-6--6-8-9\---4----|--6--6-6-6--6-8-9\---4----|
--4--4-4-4--4-6-7\---2----|--4--4-4-4--4-6-7\---2----|
--------------------------|--------------------------|


                                                               
-------------------------------|------------------------------|
-------------------------------|------------------------------|
--6---4---2--------------2-4---|--6--6-6-6--6-6-6--6-6-6--6-6-|
--6---4---2--------------2-4---|--6--6-6-6--6-6-6--6-6-6--6-6-|
--4---2---0--------------0-2---|--4--4-4-4--4-4-4--4-4-4--4-4-|
-------------------------------|------------------------------|


                                                            
-----------------------4----|------------------------------|
-----------------------4----|------------------------------|
--6--6-6-6--6-6-6--6-6-2----|--6--6-6-6--6-6-4--4-4-4--4-4-|
--6--6-6-6--6-6-6--6-6-2----|--6--6-6-6--6-6-4--4-4-4--4-4-|
--4--4-4-4--4-4-4--4-4-0----|--4--4-4-4--4-4-2--2-2-2--2-2-|
----------------------------|------------------------------|


                                                              
------------------------------|------------------------------|
------------------------------|------------------------------|
--2--2-2-2--2-2-2--2-2-2--2-2-|--6--6-6-6--6-6-6--6-6-6--6-6-|
--2--2-2-2--2-2-2--2-2-2--2-2-|--6--6-6-6--6-6-6--6-6-6--6-6-|
--0--0-0-0--0-0-0--0-0-0--0-0-|--4--4-4-4--4-4-4--4-4-4--4-4-|
------------------------------|------------------------------|


                                                          
---------------------4----|------------------------------|
---------------------4----|------------------------------|
--6--6-6-6--6-6-6----2----|--6--6-6-6--6-6-4--4-4-4--4-4-|
--6--6-6-6--6-6-6----2----|--6--6-6-6--6-6-4--4-4-4--4-4-|
--4--4-4-4--4-4-4----0----|--4--4-4-4--4-4-2--2-2-2--2-2-|
--------------------------|------------------------------|


                                                         
------------------------------|--4----4------4----4-----|
------------------------------|--4----4--2-2-4----4-----|
--6--6-6-6--6-6-6--6-6-6--6-6-|--2----2--2-2-2----2-4---|
--6--6-6-6--6-6-6--6-6-6--6-6-|--2----2--2-2-2----2-4---|
--4--4-4-4--4-4-4--4-4-4--4-4-|--0----0--0-0-0----0-2---|
------------------------------|-------------------------|


                                                       
---------------------------|--------------------------|
---------------------------|--------------------------|
--6--6-6-6--6-6-6--8--9----|--6--6-6-6--6-8-9\---4----|
--6--6-6-6--6-6-6--8--9----|--6--6-6-6--6-8-9\---4----|
--4--4-4-4--4-4-4--6--7----|--4--4-4-4--4-6-7\---2----|
---------------------------|--------------------------|


                                                                                
--------------------------|---------------------|------------------------------|
--------------------------|---------------------|------------------------------|
--6--6-6-6--6-8-9\---4----|--6---4---6----------|--6--6-6-6--6-6-6--6-6-6--6-6-|
--6--6-6-6--6-8-9\---4----|--6---4---6----------|--6--6-6-6--6-6-6--6-6-6--6-6-|
--4--4-4-4--4-6-7\---2----|--4---2---4----------|--4--4-4-4--4-4-4--4-4-4--4-4-|
--------------------------|---------------------|------------------------------|


                                                            
-----------------------4----|------------------------------|
-----------------------4----|------------------------------|
--6--6-6-6--6-6-6--6-6-2----|--6--6-6-6--6-6-4--4-4-4--4-4-|
--6--6-6-6--6-6-6--6-6-2----|--6--6-6-6--6-6-4--4-4-4--4-4-|
--4--4-4-4--4-4-4--4-4-0----|--4--4-4-4--4-4-2--2-2-2--2-2-|
----------------------------|------------------------------|


                                                             
-----------------------------|------------------------------|
-----------------------------|------------------------------|
--2--2-2-2--2-2-2--2-2-2-4---|--6--6-6-6--6-6-6--6-6-6--6-6-|
--2--2-2-2--2-2-2--2-2-2-4---|--6--6-6-6--6-6-6--6-6-6--6-6-|
--0--0-0-0--0-0-0--0-0-0-2---|--4--4-4-4--4-4-4--4-4-4--4-4-|
-----------------------------|------------------------------|


                                                            
-----------------------4----|------------------------------|
-----------------------4----|------------------------------|
--6--6-6-6--6-6-6--6-6-2----|--6--6-6-6--6-6-4--4-4-4--4-4-|
--6--6-6-6--6-6-6--6-6-2----|--6--6-6-6--6-6-4--4-4-4--4-4-|
--4--4-4-4--4-4-4--4-4-0----|--4--4-4-4--4-4-2--2-2-2--2-2-|
----------------------------|------------------------------|


                                                      
----------------------------|-------4----4--4--4--4--|
----------------------------|-------4----4--4--4--4--|
--6--6-6-6--6-6-6--6-6-6\---|--2----2----2--2--2--2--|
--6--6-6-6--6-6-6--6-6-6\---|--2----2----2--2--2--2--|
--4--4-4-4--4-4-4--4-4-4\---|--0----0----0--0--0--0--|
----------------------------|------------------------|


                                                                         
--------------------------|----------------------|--5--5------5\---2----|
--------------------------|----------------------|--5--5------5\---x----|
--4--4-4--4-4--4--4--6----|--6--6------4--4------|--x--x------x----4----|
--4--4-4--4-4--4--4--6----|--6--6------4--4------|--7--7------7\---4----|
--2--2-2--2-2--2--2--4----|--4--4------2--2------|--7--7------7\---2----|
--------------------------|----------------------|--5--5------5\--------|


                                                                    
----------------------|--4--------4----2----|----------------------|
----------------------|--4--------4----x----|----------------------|
--6--6------4--4------|--x--------x----4----|--6--6------4--4------|
--6--6------4--4------|--6--------6----4----|--6--6------4--4------|
--4--4------2--2------|--6--------6----2----|--4--4------2--2------|
----------------------|--4--------4---------|----------------------|


                                                                  
--5--5------5\---2----|----------------------|--4----------------|
--5--5------5\---x----|----------------------|--4----------------|
--x--x------x----4----|--6--6------4--4------|--2----------------|
--7--7------7\---4----|--6--6------4--4------|--2----------------|
--7--7------7\---2----|--4--4------2--2------|--0----------------|
--5--5------5\--------|----------------------|-------------------|


                                                            
------------------------------|-----------------------4----|
------------------------------|-----------------------4----|
--6--6-6-6--6-6-6--6-6-6--6-6-|--6--6-6-6--6-6-6--6-6-2----|
--6--6-6-6--6-6-6--6-6-6--6-6-|--6--6-6-6--6-6-6--6-6-2----|
--4--4-4-4--4-4-4--4-4-4--4-4-|--4--4-4-4--4-4-4--4-4-0----|
------------------------------|----------------------------|


                                                             
------------------------------|-----------------------------|
------------------------------|-----------------------------|
--6--6-6-6--6-6-4--4-4-4--4-4-|--2--2-2-2--2-2-2--2-2-2-4---|
--6--6-6-6--6-6-4--4-4-4--4-4-|--2--2-2-2--2-2-2--2-2-2-4---|
--4--4-4-4--4-4-2--2-2-2--2-2-|--0--0-0-0--0-0-0--0-0-0-2---|
------------------------------|-----------------------------|


                                                            
------------------------------|-----------------------4----|
------------------------------|-----------------------4----|
--6--6-6-6--6-6-6--6-6-6--6-6-|--6--6-6-6--6-6-6--6-6-2----|
--6--6-6-6--6-6-6--6-6-6--6-6-|--6--6-6-6--6-6-6--6-6-2----|
--4--4-4-4--4-4-4--4-4-4--4-4-|--4--4-4-4--4-4-4--4-4-0----|
------------------------------|----------------------------|


                                                                                
------------------------------|--4----------------|----------------------------|
------------------------------|--4----------------|-------11r------------------|
--6--6-6-6--6-6-4--4-4-4--4-4-|--2----------------|-------11r-9-11-9b----------|
--6--6-6-6--6-6-4--4-4-4--4-4-|--2----------------|------------------11-9-9~---|
--4--4-4-4--4-4-2--2-2-2--2-2-|--0----------------|----------------------------|
------------------------------|-------------------|----------------------------|

[ Tab from: http://www.guitartabs.cc/tabs/d/dio/holy_diver_tab_ver_4.html ]
                                                           
------------------------------|---------------------------|
------------------------------|---------------------------|
--0-----9--8--6--6~-----------|-----------------x--9------|
-----8--9--8--6--6~-----------|-----------------x-----11--|
------------------------9--7--|--6~---------2/9-----------|
------------------------------|---------------------------|


                                                                  
------------------------------|----------------------------------|
--9~--------------------------|----------------------------------|
--9~---9--8--8--8~------------|----------------------------------|
--9~---9--8--8--8~-----9--11--|--11-11~-9------------------------|
------------------------------|-----------11-10-9\7-9b---9r----x-|
------------------------------|------------------------------x---|


                                                                 
---------------------19r-|------17-16-------------------19------|
------------------x------|------------17-16-19--17--16-----17~--|
------------------x------|--------------------------------------|
--9~---------------------|--------------------------------------|
------------0/16---------|--------------------------------------|
-------------------------|--------------------------------------|


                                                           
-------------------------------19-19-19-17-16-16----------|
--16~-------19-19r-17-16-17-17-------------------17-16h17-|
----------------------------------------------------------|
----------------------------------------------------------|
----------------------------------------------------------|
----------------------------------------------------------|


                                                              
------------------------------------|------------------------|
--16\14-----------------------------|------------------------|
--------16--18-18r---------16----16-|--16~--------16\--9\-3--|
------------------------------18----|------------------------|
------------------------------------|------------------------|
------------------------------------|------------------------|


                                                                                
-------------------------------------------|--------------------12/14----------|
------9--10--9-----12----------------------|-----------------------------9-10--|
--10------------9------9--8--11--9--8------|-----8--9--8--9--9--9/-11----------|
---------------------------------------11\-|--9--------------------------------|
-------------------------------------------|-----------------------------------|
-------------------------------------------|-----------------------------------|


                                                 
------------------------------------------------|
--9h10p9----9-10-9h10p9---------9-10-9----------|
---------11-------------9-8-9-9--------11-9-8-9-|
------------------------------------------------|
------------------------------------------------|
------------------------------------------------|


                                                    
---------------------------------------------------|
------10-9h10p9----9-------------------------------|
--8/9-----------11---9-8-9-8h9p8-------------------|
---------------------------------11-9-9-9---9-9-11-|
---------------------------------------------------|
---------------------------------------------------|


                                                   
--------------------------------------------------|
--9-10-9h10p9----9---------10-9h10p9----9-12-9-10-|
--------------11---9-8-9-8-----------11-----------|
--------------------------------------------------|
--------------------------------------------------|
--------------------------------------------------|


                                                             
----12-11-9--------------9----------------------------------|
--9---------12-10-9---12---12-10-9-12-10-9----9h10p9--------|
--------------------9----------------------11--------11-9-8-|
------------------------------------------------------------|
------------------------------------------------------------|
------------------------------------------------------------|


                                                   
--------------------------------------------------|
---------------------------9-9-9-9-9--12-12-12-12-|
--8~--9-9-9~-9-9-11-11-11~------------------------|
--------------------------------------------------|
--------------------------------------------------|
--------------------------------------------------|


                                                                 
---------------------------------|------------------------------|
--12--10-10-10-9-----------------|------------------------------|
-----------------11-9-11r---9~---|--6--6-6-6--6-6-6--6-6-6--6-6-|
---------------------------------|--6--6-6-6--6-6-6--6-6-6--6-6-|
---------------------------------|--4--4-4-4--4-4-4--4-4-4--4-4-|
---------------------------------|------------------------------|


                                                            
-----------------------4----|------------------------------|
-----------------------4----|------------------------------|
--6--6-6-6--6-6-6--6-6-2----|--6--6-6-6--6-6-4--4-4-4--4-4-|
--6--6-6-6--6-6-6--6-6-2----|--6--6-6-6--6-6-4--4-4-4--4-4-|
--4--4-4-4--4-4-4--4-4-0----|--4--4-4-4--4-4-2--2-2-2--2-2-|
----------------------------|------------------------------|


                                                             
-----------------------------|------------------------------|
-----------------------------|------------------------------|
--2--2-2-2--2-2-2--2-2-2-4---|--6--6-6-6--6-6-6--6-6-6--6-6-|
--2--2-2-2--2-2-2--2-2-2-4---|--6--6-6-6--6-6-6--6-6-6--6-6-|
--0--0-0-0--0-0-0--0-0-0-2---|--4--4-4-4--4-4-4--4-4-4--4-4-|
-----------------------------|------------------------------|


                                                            
-----------------------4----|------------------------------|
-----------------------4----|------------------------------|
--6--6-6-6--6-6-6--6-6-2----|--6--6-6-6--6-6-4--4-4-4--4-4-|
--6--6-6-6--6-6-6--6-6-2----|--6--6-6-6--6-6-4--4-4-4--4-4-|
--4--4-4-4--4-4-4--4-4-0----|--4--4-4-4--4-4-2--2-2-2--2-2-|
----------------------------|------------------------------|


                                                         
------------------------------|--4----4--4--4--4--4--4--|
------------------------------|--4----4--4--4--4--4--4--|
--6--6-6-6--6-6-6--6-6-6--6-6-|--2----2--2--2--2--2--2--|
--6--6-6-6--6-6-6--6-6-6--6-6-|--2----2--2--2--2--2--2--|
--4--4-4-4--4-4-4--4-4-4--4-4-|--0----0--0--0--0--0--0--|
------------------------------|-------------------------|


                                                                              
--------------------------|--4----4--4--4--4--4--4--|------------------------|
--4--4--4--4--4--4--4--4--|--4----4--4--4--4--4--4--|--4--4--4--4--4----4----|
--4--4--4--4--4--4--4--4--|--2----2--2--2--2--2--2--|--4--4--4--4--4----5----|
--4--4--4--4--4--4--4--4--|--2----2--2--2--2--2--2--|--4--4--4--4--4----5----|
--2--2--2--2--2--2--2--2--|--0----0--0--0--0--0--0--|--2--2--2--2--2----3----|
--------------------------|-------------------------|------------------------|


                                                       
---------------------------|--------------------------|
---------------------------|--------------------------|
--6--6-6-6--6-6-6--8--9----|--6--6-6-6--6-8-9\---4----|
--6--6-6-6--6-6-6--8--9----|--6--6-6-6--6-8-9\---4----|
--4--4-4-4--4-4-4--6--7----|--4--4-4-4--4-6-7\---2----|
---------------------------|--------------------------|


                                                       
---------------------------|--------------------------|
---------------------------|--------------------------|
--6--6-6-6--6-6-6--8--9----|--6--6-6-6--6-6-9----4----|
--6--6-6-6--6-6-6--8--9----|--6--6-6-6--6-6-9----4----|
--4--4-4-4--4-4-4--6--7----|--4--4-4-4--4-4-7----2----|
---------------------------|--------------------------|


                                                       
---------------------------|--------------------------|
---------------------------|--------------------------|
--6--6-6-6--6-6-6--8--9----|--6--6-6-6--6-8-9\---4----|
--6--6-6-6--6-6-6--8--9----|--6--6-6-6--6-8-9\---4----|
--4--4-4-4--4-4-4--6--7----|--4--4-4-4--4-6-7\---2----|
---------------------------|--------------------------|


                                                       
---------------------------|--------------------------|
---------------------------|--------------------------|
--6--6-6-6--6-6-6--8--9----|--6--6-6-6--6-6-9----4----|
--6--6-6-6--6-6-6--8--9----|--6--6-6-6--6-6-9----4----|
--4--4-4-4--4-4-4--6--7----|--4--4-4-4--4-4-7----2----|
---------------------------|--------------------------|


                                                       
---------------------------|--------------------------|
---------------------------|--------------------------|
--6--6-6-6--6-6-6--8--9----|--6--6-6-6--6-8-9\---4----|
--6--6-6-6--6-6-6--8--9----|--6--6-6-6--6-8-9\---4----|
--4--4-4-4--4-4-4--6--7----|--4--4-4-4--4-6-7\---2----|
---------------------------|--------------------------|


                                                        
---------------------------|--------------------------||
---------------------------|--------------------------||
--6--6-6-6--6-6-6--8--9----|--6--6-6-6--6-6-9----4----||
--6--6-6-6--6-6-6--8--9----|--6--6-6-6--6-6-9----4----||
--4--4-4-4--4-4-4--6--7----|--4--4-4-4--4-4-7----2----||
---------------------------|--------------------------||
Comments