Dio - Holy Diver Chords & Tabs

 

Holy Diver Chords & Tabs

Dio Chords & Tabs

Version: 2 Type: Tab 0 ratings
1 star 2 stars 3 stars 4 stars 5 stars
comments

Holy Diver Tab

   
Ronnie James Dio
Holy Diver

 
    Gtr I
      PM|   PM|     ~      PM|                 PM|
||---------------------|-------------------|-------------------|
||o--------------------|-------------------|-------------------|
||--6-----6-----6-8-9--|-6-----6-6-8-9--4--|-6-----6-6-8-9--4--|
||--6-----6-----6-8-9--|-6-----6-6-8-9--4--|-6-----6-6-8-9--4--|
||o-4-4-4-4-4-4-4-6-7--|-4-4-4-4-4-6-7--2--|-4-4-4-4-4-6-7--2--|
||---------------------|-------------------|-------------------|


                                                 1st & 2nd Verses
  1.                   2.
                                                  $
  C#B5    C#5          C#B5    A5         B5      C#5
                                                                                                     PM|   PM|   PM|
|-------------------||------------------------||---------------------------|
|------------------o||------------------------||o--------------------------|
|-6-4-(4)-6-(6)-----||-6-4-(4)-2-(2)------4-4-||--6-----6-----6-----6------|
|-6-4-(4)-6-(6)-----||-6-4-(4)-2-(2)------4-4-||--6-----6-----6-----6------|
|-4-2-(2)-4-(4)----o||-4-2-(2)-0-(0)------2-2-||o-4-4-4-4-4-4-4-4-4-4-4-4--|
|-------------------||------------------------||---------------------------|


  C#5               A5   C#5         B5            A5
    PM|   PM|   PM|        PM|   PM|   PM|   PM|     PM|   PM|   PM|   PM|
|----------------------|-------------------------|--------------------------|
|----------------------|-------------------------|--------------------------|
|-6-----6-----6-----2--|-6-----6-----4-----4-----|-2-----2-----2-----2------|
|-6-----6-----6-----2--|-6-----6-----4-----4-----|-2-----2-----2-----2------|
|-4-4-4-4-4-4-4-4-4-0--|-4-4-4-4-4-4-2-2-2-2-2-2-|-0-0-0-0-0-0-0-0-0-0-0-0--|
|----------------------|-------------------------|--------------------------|


                                                               To Coda
  C#5                                      A5   C#5         B5
    PM|   PM|   PM|   PM|     PM|   PM|           PM|   PM|   PM|   PM|
|-------------------------|-------------------|-------------------------|
|-------------------------|-------------------|-------------------------|
|-6-----6-----6-----6-----|-6-----6-----6--2--|-6-----6-----4-----4-----|
|-6-----6-----6-----6-----|-6-----6-----6--2--|-6-----6-----4-----4-----|
|-4-4-4-4-4-4-4-4-4-4-4-4-|-4-4-4-4-4-4-4--0--|-4-4-4-4-4-4-2-2-2-2-2-2-|
|-------------------------|-------------------|-------------------------|


                            1st Chorus
                             1.
  C#5                        A5            B5  C#5         C#D#E5
    PM|   PM|   PM|   PM|         PM|            PM|   PM|     ~
|-------------------------||-----------------|---------------------|
|-------------------------||-----------------|---------------------|
|-6-----6-----6-----6-----||-2--2-----2--2-4-|-6-----6-----6-8-9---|
|-6-----6-----6-----6-----||-2--2-----2--2-4-|-6-----6-----6-8-9---|
|-4-4-4-4-4-4-4-4-4-4-4-4-||-0--0-0-0-0--0-2-|-4-4-4-4-4-4-4-6-7---|
|-------------------------||-----------------|---------------------|


  C#5       D#E5 B5   C#5         E5 B5   C#B5    C#5
    PM|                 PM|   PM|
|-------------------|-------------------|-------------------||
|-------------------|-------------------|------------------o||
|-6-----6-6-8-9--4--|-6-----6-----9--4--|-6-4-(4)-6-(6)-----||
|-6-----6-6-8-9--4--|-6-----6-----9--4--|-6-4-(4)-6-(6)-----||
|-4-4-4-4-4-6-7--2--|-4-4-4-4-4-4-7--2--|-4-2-(2)-4-(4)----o||
|-------------------|-------------------|-------------------||


 2nd Chorus                             Bridge
  2.
  A5              B5                     C#5   B5
|---------------|----------------------|-------------|
|---------------|----------------------|-------------|
|-2--2--2-2-2-2-|-4-4-4-(4)-4-4-4-4-4--|-6-6---4-4---|
|-2--2--2-2-2-2-|-4-4-4-(4)-4-4-4-4-4--|-6-6---4-4---|
|-0--0--0-0-0-0-|-2-2-2-(2)-2-2-2-2-2--|-4-4---2-2---|
|---------------|----------------------|-------------|


  A5       B5   C#5   B5      G#5     B5
|-------------|-------------|------------|
|-------------|-------------|------------|
|-2-2---2--4--|-6-6---4-4---|---------4--|
|-2-2---2--4--|-6-6---4-4---|-6----6--4--|
|-0-0---0--2--|-4-4---2-2---|-6----6--2--|
|-------------|-------------|-4----4-----|


                                  D.S. al Coda
  C#5   B5      A5       B5   C#5   B5      A5
|-------------|-------------|-------------|-------|
|-------------|-------------|-------------|-------|
|-6-6---4-4---|-2-2---2--4--|-6-6---4-4---|-2-----|
|-6-6---4-4---|-2-2---2--4--|-6-6---4-4---|-2-----|
|-4-4---2-2---|-0-0---0--2--|-4-4---2-2---|-0-----|
|-------------|-------------|-------------|-------|


            Guitar Solo
  &
  A5         BC#5                           E5   C#5
  Gtr I

  Gtr II
                                            \0.5
                                       ~
|---------||------------------------------|---------------------------|
|---------||----11b12r(11)----------------|---------------------------|
|---------||----11b12r(11)p9-11-9---------|-0-------9-8-6-6--(6)------|
|---------||----------------------11-9-9--|-------8-9-8-6-6--(6)------|
|---------||------------------------------|----------------------9-7--|
|---------||------------------------------|---------------------------|


  C#5                   E5C#5    E5 Eb5


  ~                     ~
|---------------------|----------------------|
|---------------------|-9--------------------|
|--------------x-9----|-9--9-8-8-8--(8)------|
|--------------x---11-|-9--9-8-8-8--(8)-9-11-|
|-6----(6)S2S9--------|----------------------|
|---------------------|----------------------|


  B5 C#5
 
      ~~
|------------------------------------------|
|------------------------------------------|
|------------------------------------------|
|-11-11-9----------------------------------|
|---------11-10-9S7-9b10-(9)-9b10r(9)---x--|
|-------------------------------------x----|


  E5  C#5                     B5   C#5
 
   ~~~
|--------------------19b21==|=(19)r=(19)-17-16----------------19----|
|------------------x--------|------------------17-16-19-17-16----17-|
|------------------x--------|---------------------------------------|
|-[9]----(9)----------------|---------------------------------------|
|------------0-/16----------|---------------------------------------|
|---------------------------|---------------------------------------|

[ Tab from: http://www.guitartabs.cc/tabs/d/dio/holy_diver_tab_ver_2.html ]
  E5 C#5E5                           F#5
 
   ~~
|---------------------------------19-19-19-17-16-16------------|
|-16----19-19b20r(19)-17-16-17-17-------------------17-16-17---|
|--------------------------------------------------------------|
|--------------------------------------------------------------|
|--------------------------------------------------------------|
|--------------------------------------------------------------|


  B5    C#5                                       E5 C#5
  
                                                   ~~
|-----------------------------------------------|-----------------------|
|-16s14-----------------------------------------|-----------------------|
|--------16-(16)-18-18b23===(18)r=(18)-16----16-|-16----(16)-16S(9)S(3)-|
|-----------------------------------------18----|-----------------------|
|-----------------------------------------------|-----------------------|
|-----------------------------------------------|-----------------------|


  C#5                              E5 C#5        C#5   B5
   
|--------------------------------|---------------12s14-(14)-------|
|------9-10-9---12---------------|--------------------------9-10--|
|-/10---------9----9-8-11-9-8----|-----8-9-8-9-9--9s11-(11)-------|
|-----------------------------11-|-\9-----------------------------|
|--------------------------------|--------------------------------|
|--------------------------------|--------------------------------|


  A5
      
|-----------------------------------------------|
|-9h10p9----9-10-9h10p9---------9-10-9----------|
|--------11-------------9-8-9-9--------11-9-8-9-|
|-----------------------------------------------|
|-----------------------------------------------|
|-----------------------------------------------|


  B5
  

|------------------------------------------------------|
|-----10-9h10p9----9-----------------------------------|
|-8s9-----------11---9-8-9-8h9p8-----------------------|
|--------------------------------11-9-9-9-(9)-9-9-11---|
|------------------------------------------------------|
|------------------------------------------------------|


  A5
 

|-------------------------------------------------|
|-9-10-9h10p9----9---------10-9h10p9----9-12-9-10-|
|-------------11---9-8-9-8-----------11-----------|
|-------------------------------------------------|
|-------------------------------------------------|
|-------------------------------------------------|


  B5                E5                     Eb5
 

|---12-11-9--------------9-----------------------------------|
|-9---------12-10-9---12---12-10-9-12-10-9----9h10p9---------|
|-------------------9----------------------11--------11-9-8--|
|------------------------------------------------------------|
|------------------------------------------------------------|
|------------------------------------------------------------|


  A5
    ~      ~            ~~
|---------------------------------------------|
|-----------------------9-9-9-9-9-12-12-12-12-|
|-8--9-9-9-9-9-11-11-11-----------------------|
|---------------------------------------------|
|---------------------------------------------|
|---------------------------------------------|


  E        Eb        C#5        B5
   
                                ~
|-----------------------------------||
|-12-10-10-10-9---------------------||
|---------------11-9-11b13r(11)-9---||
|-----------------------------------||
|-----------------------------------||
|-----------------------------------||


 3rd Verse
  C#5                                             A5   C#5         B5
  Gtr I
      PM|   PM|   PM|   PM|       PM|   PM|   PM|        PM|   PM|   PM|   PM|
|---------------------------|------------------------|-------------------------|
|---------------------------|------------------------|-------------------------|
|-6-------6-----6-----6-----|--6------6-----6-----2--|-6-----6-----4-----4-----|
|-6-------6-----6-----6-----|--6------6-----6-----2--|-6-----6-----4-----4-----|
|-4---4-4-4-4-4-4-4-4-4-4-4-|--4--4-4-4-4-4-4-4-4-0--|-4-4-4-4-4-4-2-2-2-2-2-2-|
|---------------------------|------------------------|-------------------------|
|
| Gtr II
|         ~~~~~~~~~~~~~~~~~~~~~~~~
|---------------------------|------------------------|-------------------------|
|---------------------------|------------------------|-------------------------|
|-9S8-8-8-8-----------------|-(8)--------------------|-------------------------|
|---------------------------|------------------------|-------------------------|
|---------------------------|------------------------|-------------------------|
|---------------------------|------------------------|-------------------------|


  A5                        C#5                                      A5
    PM|   PM|   PM|   PM|     PM|   PM|   PM|   PM|     PM|   PM|
|-------------------------|-------------------------|-------------------|
|-------------------------|-------------------------|-------------------|
|-2-----2-----2-----2-----|-6-----6-----6-----6-----|-6-----6-----6--2--|
|-2-----2-----2-----2-----|-6-----6-----6-----6-----|-6-----6-----6--2--|
|-0-0-0-0-0-0-0-0-0-0-0-0-|-4-4-4-4-4-4-4-4-4-4-4-4-|-4-4-4-4-4-4-4--0--|
|-------------------------|-------------------------|-------------------|


                                                      3rd Chorus
  C#5         B5            C#5                        A5
    PM|   PM|   PM|   PM|     PM|   PM|   PM|   PM|      PM|   PM|   PM|   PM|
|-------------------------|-------------------------||-------------------------|
|-------------------------|-------------------------||-------------------------|
|-6-----6-----4-----4-----|-6-----6-----6-----6-----||-2-----2-----2-----2-----|
|-6-----6-----4-----4-----|-6-----6-----6-----6-----||-2-----2-----2-----2-----|
|-4-4-4-4-4-4-2-2-2-2-2-2-|-4-4-4-4-4-4-4-4-4-4-4-4-||-0-0-0-0-0-0-0-0-0-0-0-0-|
|-------------------------|-------------------------||-------------------------|


  B5                        A5                        B5             B#5
    PM|   PM|   PM|   PM|     PM|   PM|   PM|   PM|     PM|   PM|
|-------------------------|-------------------------|-------------------|
|-------------------------|-------------------------|-------------------|
|-4-----4-----4-----4-----|-2-----2-----2-----2-----|-4-----4-----4--5--|
|-4-----4-----4-----4-----|-2-----2-----2-----2-----|-4-----4-----4--5--|
|-2-2-2-2-2-2-2-2-2-2-2-2-|-0-0-0-0-0-0-0-0-0-0-0-0-|-2-2-2-2-2-2-2--3--|
|-------------------------|-------------------------|-------------------|


   Outro
    C#5           D#E5   C#5       D#E5 B5
      PM|   PM|     ~      PM|
||---------------------|-------------------|
||o--------------------|-------------------|
||--6-----6-----6-8-9--|-6-----6-6-8-9--4--|
||--6-----6-----6-8-9--|-6-----6-6-8-9--4--|
||o-4-4-4-4-4-4-4-6-7--|-4-4-4-4-4-6-7--2--|
||---------------------|-------------------|


  C#5           D#E5   C#5       D#E5 D#5
    PM|   PM|     ~      PM|
|--------------------|---------------------||
|--------------------|--------------------o||
|-6-----6-----6-8-9--|-6-----6-6-8-9--8----||
|-6-----6-----6-8-9--|-6-----6-6-8-9--8----||
|-4-4-4-4-4-4-4-6-7--|-4-4-4-4-4-6-7--6---o||
|--------------------|---------------------||



Comments