Dio - Holy Diver Chords & Tabs

 

Holy Diver Chords & Tabs

Dio Chords & Tabs

Version: 2 Type: Bass Tab 0 ratings
1 star 2 stars 3 stars 4 stars 5 stars
comments

Holy Diver Bass Tab

Intro                                                                  |1ª     |2ª
G|----------------------|-------------------------|--------------------|-------|------------|
D|----------------------|-------------------------|--------------------|-------|------------|
A|-4-4-4--4-4-4--4-6-7/-|-4-4-4--4-4--4-4--6-7/-2-|-4-4-4--4-4--4-7-/2-|-4-2-4-|-4-2-0--0-2-|
E|----------------------|-------------------------|--------------------|-------|------------|

Bass
        7x         2x       2x     4x            7x         2x       2x 
G|-------|---|-------|-------|-------|-----|-------|---|-------|-------|
D|-------|---|-------|-------|-------|-----|-------|---|-------|-------|
A|-4-4-4-|-0-|-4-4-4-|-2-2-2-|-0-0-0-|-0-2-|-4-4-4-|-0-|-4-4-4-|-2-2-2-|
E|-------|---|-------|-------|-------|-----|-------|---|-------|-------|


 |1ª   4x                   |2ª      3x
G|-------|------------------|----------|----------------------------|
D|-------|------------------|----------|----------------------------|
A|-4-4-4-|-0--0--0-0-0--0-2-|-4-4-4-4/-|-0--0-0-0-0-0--2-2-2-2--2-4-|
E|-------|------------------|----------|----------------------------|
[ Tab from: http://www.guitartabs.cc/tabs/d/dio/holy_diver_btab_ver_2.html ]
                           |1ª     |2ª
G|---------------------|----------|-------|---|
D|---------------------|----------|-------|---|
A|-4-4--2-2--0-0--0/2--|-4-4--2-2-|-----2-|-0-|
E|---------------------|----------|-4-4---|---|

Bass Solo
G|-----|-----|-----|-----|-----|-----|-----|-----|-----|-----|-----|-----|-----|-----|-----|
D|-----|-----|-----|-----|-----|-----|-----|-----|-----|-----|-----|-----|-----|-----|-----|
A|-2-4-|-7-4-|-4-4-|-7-4-|-7-6-|-2-4-|-7-4-|-2-4-|-7-4-|-7-9-|-2-4-|-7-4-|-4-4-|-7-4-|-4-2-|
E|-----|-----|-----|-----|-----|-----|-----|-----|-----|-----|-----|-----|-----|-----|-----|

       4x      4x      2x        2x                          4x
G|-------|-------|-------|---------|-------------------|-------|-----|
D|-------|-------|-------|---------|-------------------|-------|-----|
A|-0-0-0-|-2-2-2-|-0-0-0-|-0-0-0-0-|-2-2-2--2-2-7--7-4-|-0-0-0-|-4-0-|
E|-------|-------|-------|---------|-------------------|-------|-----|


G|----------------------|-------------------------|
D|----------------------|-------------------------|
A|-4-4-4--4-4-4--4-6-7/-|-4-4-4--4-4--4-4--6-7/-2-|
E|----------------------|-------------------------|

G|----------------------|-------------------------|
D|----------------------|-------------------------|
A|-4-4-4--4-4-4--4-6-7/-|-4-4-4--4-4--4-4--6-7/-6-|
E|----------------------|-------------------------|
Comments