Dio - Dont Talk To Strangers Chords & Tabs

 

Dont Talk To Strangers Chords & Tabs

Dio Chords & Tabs

Version: 2 Type: Tab 0 ratings
1 star 2 stars 3 stars 4 stars 5 stars
comments

Dont Talk To Strangers Tab


       Dont talk to strangers by Dio

[ Tab from: http://www.guitartabs.cc/tabs/d/dio/dont_talk_to_strangers_tab_ver_2.html ]
          intro
e]------------------------------]------------------------------------|
B]--------1------1------1----1--]----------1-----1-------1---1-------|
G]------2------2-----2----------]-------3------3------3--------------|
D]---0------0-----0-----0-------]----3------3------3------3----------|
A]------------------------------]------------------------------------|
E]------------------------------]------------------------------------|

                               ~~~~~~~~~~~~
e]-----------------------------------------|
B]------1----1---1-------------------------|
G]----0----0---0---0-----------5-----------|
D]--3----3---3-------3--0^3----------------|
A]-----------------------------------------|
E]-----------------------------------------|
Comments