Dio - Dont Talk To Strangers Chords & Tabs

 

Dont Talk To Strangers Chords & Tabs

Dio Chords & Tabs

Version: 1 Type: Tab 3 ratings
1 star 2 stars 3 stars 4 stars 5 stars
comments

Dont Talk To Strangers Tab

   
Don't Talk to Strangers by Dio

This isnt the whole song but it will get you started


opening acoustic riff
e-------------------------------------|
b---1--1-1---1--1--1---1--1-1--1--1-1-|
g--2--2-----3--3-3-2--0--0----2--2----|
d-0--0--0--3--3--3---3--2--3-0--0--0--|
a-------------------------------------|
e-------------------------------------|
[ Tab from: http://www.guitartabs.cc/tabs/d/dio/dont_talk_to_strangers_tab.html ]
(i might have messed up on the palm mutes, just listen to the song and youll get it)
heres where it gets fast            verse
e----------------------------------|--------------------------------------------------------
b----------------------------------|--------------------------------------------------------
g----------------------------------|--------------------------------------------------------
d-7------8------8------8----8----8-|-7------7----7-6------6----6-5------5----5-7------7----7
a-5-5555-5-5555-5-5555-5-55-5-55-5-|-5-5555-5-55-5-5-5555-5-55-5-5-5555-5-55-5-5-5555-5-55-5
e----pm-----pm-----pm----pm---pm---|--------------------------------------------------------


right after verse  and then it slows down
e--------|       ---------------------|
b--------|       ---------------------|
g--------|       ---------------------|
d-3---5--|       -7----3----5----7----|
a-1---3--|       -5----1----3----5----|
e--------|       ---------------------|
Comments