Dio - Caught In The Middle Chords & Tabs

 

Caught In The Middle Chords & Tabs

Dio Chords & Tabs

Version: 2 Type: Tab 0 ratings
1 star 2 stars 3 stars 4 stars 5 stars
comments

Caught In The Middle Tab

   
Dio
Caught in the middle

  C#5   E5 B5          E5 A5          N.C.              C#5B5      C#5
 4/4
  Gtrs I, II
                                      PM--------------|
|------------|--------------|---------------------|--------------------|
|------------|--------------|---------------------|--------------------|
|-6-----9--4-|-(4)-----9--2-|-(2)-----------------|-----6--4-4-(4)-6-6-|
|-6-----9--4-|-(4)-----9--2-|-(2)-----------------|-----6--4-4-(4)-6-6-|
|-4-----7--2-|-(2)-----7--0-|-(0)-----------------|-x-x-4--2-2-(2)-4-4-|
|------------|--------------|---------2-4-5-4-2-4-|--------------------|


          E5 B5          E5 A5          N.C.              C#5B5      N.C.A5
 4/4
                                        PM--------------|
|--------------|--------------|---------------------|----------------------||
|--------------|--------------|---------------------|----------------------||
|-(6)-----9--4-|-(4)-----9--2-|-(2)-----------------|-----6--4-4-(4)-----2-||
|-(6)-----9--4-|-(4)-----9--2-|-(2)-----------------|-----6--4-4-(4)-----2-||
|-(4)-----7--2-|-(2)-----7--0-|-(0)-----------------|-x-x-4--2-2-(2)-----0-||
|--------------|--------------|---------2-4-5-4-2-4-|----------------4b5---||


 Verse 1
                               C#B5A5                                C#B5E5
|------------------|-----------------|-------------------|------------------|
|------------------|-----------------|-------------------|------------------|
|-(2)--------------|-----------6-4-2-|-(2)---------------|-----------6-4----|
|-(2)--2-2-2-2-2-2-|-2-2-2-2-2-6-4-2-|-(2)-2-2-2-2-2-2-2-|-2-2-2-2-2-6-4-2--|
|-(0)--0-0-0-0-0-0-|-0-0-0-0-0-4-2-0-|-(0)-0-0-0-0-0-0-0-|-0-0-0-0-0-4-2-2--|
|------------------|-----------------|-------------------|---------------0--|


                                  N.C.A5                                C#B5A5
  Gtr I
|------------------|--------------------|-------------------|------------------|
|------------------|--------------------|-------------------|------------------|
|------9---9\------|------------------2-|-(2)---------------|-----------6-4-2--|
|-(2)--9---9\--2-2-|-(2)------(2)-----2-|-(2)-2-2-2-2-2-2-2-|-2-2-2-2-2-6-4-2--|
|-(2)--7---7\--2-2-|-(2)------(2)-----0-|-(0)-0-0-0-0-0-0-0-|-0-0-0-0-0-4-2-0--|
|-(0)----------0-0-|-(0)------(0)-2-4---|-------------------|------------------|
|
| Gtr II
|------------------|--------------------|-------------------|------------------|
|------------------|--------------------|-------------------|------------------|
|------9-9-9-------|--9----9---9\-----2-|-(2)---------------|-----------6-4-2--|
|-(2)--9-9-9-------|--9----9---9\-----2-|-(2)-2-2-2-2-2-2-2-|-2-2-2-2-2-6-4-2--|
|-(2)--7-7-7-------|--7----7---7\-----0-|-(0)-0-0-0-0-0-0-0-|-0-0-0-0-0-4-2-0--|
|-(0)----------0-0-|-----0--------2-4---|-------------------|------------------|


                                B5  C#5
  Gtrs I, II
|-------------------|-----------------|
|-------------------|-----------------|
|-(2)---------------|-----------4-4-6-|
|-(2)-2-2-2-2-2-2-2-|-2-2-2-2-2-4-4-6-|
|-(0)-0-0-0-0-0-0-0-|-0-0-0-0-0-2-2-4-|
|-------------------|-----------------|


       C#m      C#7sus2 C#5              B5A5
|-------------------------|-------------------|
|-------5---(5)--4--(4)---|-------------------|
|-(6)---6---(6)--4--(4)-6-|-(6)--6-6-6-6-4-2--|
|-(6)--(6)--(6)-(6)-(6)-6-|-(6)--6-6-6-6-4-2--|
|-(4)--(4)--(4)-(4)-(4)-4-|-(4)--4-4-4-4-2-0--|
|-------------------------|-------------------|


                               C#B5A5                                C#B5E5
|------------------|-----------------|-------------------|------------------|
|------------------|-----------------|-------------------|------------------|
|-(2)--------------|-----------6-4-2-|-(2)---------------|-----------6-4----|
|-(2)--2-2-2-2-2-2-|-2-2-2-2-2-6-4-2-|-(2)-2-2-2-2-2-2-2-|-2-2-2-2-2-6-4-2--|
|-(0)--0-0-0-0-0-0-|-0-0-0-0-0-4-2-0-|-(0)-0-0-0-0-0-0-0-|-0-0-0-0-0-4-2-2--|
|------------------|-----------------|-------------------|---------------0--|


              D5      C#5   B5        N.C.A5
  Gtr I
      PM  PM|   PM|     PM|  ~~~~~~~~~
|-------------------|-----------------------|
|-------------------|-----------------------|
|-------9-----7-----|-6-------------------2-|
|-(2)---9-----7-----|-6-------------------2-|
|-(2)---7-----5-----|-4-----[2]-([2])-----0-|
|-(0)-0---0-0---0-0-|---0-0-----------2-4---|
|
| Gtr II
|     PM  PM|   PM|     PM|
|-------------------|-----------------------|
|-------------------|-----------------------|
|-------9-----7-----|-6------4---(4)------2-|
|-(2)---9-----7-----|-6------4---(4)------2-|
|-(2)---7-----5-----|-4------2---(2)------0-|
|-(0)-0---0-0---0-0-|---0-0-----------2-4---|


                               C#B5A5
|------------------|------------------|
|------------------|------------------|
|-(2)--------------|-----------6-4-2--|
|-(2)--2-2-2-2-2-2-|-2-2-2-2-2-6-4-2--|
|-(0)--0-0-0-0-0-0-|-0-0-0-0-0-4-2-0--|
|------------------|------------------|
|
|------------------|------------------|
|------------------|------------------|
|-(2)--------------|-----------6-4-2--|
|-(2)--2-2-2-2-2-2-|-2-2-2-2-2-6-4-2--|
|-(0)--0-0-0-0-0-0-|-0-0-0-0-0-4-2-0--|
|------------------|------------------|


                                  B5  C#5
|-------------------|-------------------|
|-------------------|-------------------|
|-(2)---------------|-------------4-4-6-|
|-(2)-2-2-2-2-2-2-2-|--2--2-2-2-2-4-4-6-|
|-(0)-0-0-0-0-0-0-0-|--0--0-0-0-0-2-2-4-|
|-------------------|-------------------|
|
|                 ~~~~~~~~
|-------------------|-------------------|
|-------------------|-------------------|
|-(2)---------------|-------------4-4-6-|
|-(2)-2-2-2-2-2-2---|-----2-2-2-2-4-4-6-|
|-(0)-0-0-0-0-0-0-7-|-(7)-0-0-0-0-2-2-4-|
|-------------------|-------------------|


       C#m      C#7sus2 C#5        N.C.
                                        PM-|
|-------------------------|-------------------||
|-------5---(5)--4--(4)---|-------------------||
|-(6)---6---(6)--4--(4)-6-|-(6)---------------||
|-(6)--(6)--(6)-(6)-(6)-6-|-(6)---------2-----||
|-(4)--(4)--(4)-(4)-(4)-4-|-(4)----x\------2--||
|-------------------------|-------------------||
|
|-------------------------|-------------------||
|-------5---(5)--4--(4)---|-------------------||
|-(6)---6---(6)--4--(4)-6-|-(6)---------------||
|-(6)--(6)--(6)-(6)-(6)-6-|-(6)---------------||
|-(4)--(4)--(4)-(4)-(4)-4-|-(4)----x\---------||
|-------------------------|------------12\----||


 Pre-chorus
  F#7sus4              G#madd6
  ~~~~~~~PM        PM  ~~~~~~~          PM
|----------0---------|----------0---------|
|------------0-(0)---|------------0-(0)---|
|--------4-----------|--------4-----------|
|-4--(4)-----------4-|-6--(6)-----------6-|
|--------------------|--------------------|
|--------------------|--------------------|
|
| ~~~~~~~PM| ~~~~~~PM  ~~~~~~~PM| ~~~~~~PM
|--------------------|--------------------|
|--------------------|--------------------|
|--------------------|--------------------|
|----------2---------|----------2---------|
|--------2---2-(2)---|--------2---2-(2)---|
|-2--(2)-----------2-|-4--(4)-----------4-|


  Asus2                   A5      B5  N.C.
  ~~~~~~~
|----------0--------|--------------------||
|--------0---0-(0)--|-(0)----------------||
|-------------------|-----2-2-2-2-4-4----||
|-7--(7)------------|-----2-2-2-2-4-4----||
|-------------------|-----0-0-0-0-2-2----||
|-------------------|-----------------0--||
|
| ~~~~~~~PM| ~~~~~~~~~~~~~
|-------------------|--------------------||
|-------------------|--------------------||
|-------------------|-----2-2-2-2-4-4----||
|----------2--------|-----2-2-2-2-4-4----||
|--------2---2-(2)--|-(2)-0-0-0-0-2-2----||
|-5--(5)------------|-----------------0--||


 Interlude
  C#5   E5 B5          E5 A5          N.C.              C#5B5      N.C.A5
 4/4
  Gtrs I, II
                                      PM--------------|
|------------|--------------|---------------------|----------------------||
|------------|--------------|---------------------|----------------------||
|-6-----9--4-|-(4)-----9--2-|-(2)-----------------|-----6--4-4-(4)-----2-||
|-6-----9--4-|-(4)-----9--2-|-(2)-----------------|-----6--4-4-(4)-----2-||
|-4-----7--2-|-(2)-----7--0-|-(0)-----------------|-x-x-4--2-2-(2)-----0-||
|------------|--------------|---------2-4-5-4-2-4-|----------------4b5---||


 Verse 2
                               C#B5A5                                C#B5E5
|------------------|-----------------|-------------------|------------------|
|------------------|-----------------|-------------------|------------------|
|-(2)--------------|-----------6-4-2-|-(2)---------------|-----------6-4----|
|-(2)--2-2-2-2-2-2-|-2-2-2-2-2-6-4-2-|-(2)-2-2-2-2-2-2-2-|-2-2-2-2-2-6-4-2--|
|-(0)--0-0-0-0-0-0-|-0-0-0-0-0-4-2-0-|-(0)-0-0-0-0-0-0-0-|-0-0-0-0-0-4-2-2--|
|------------------|-----------------|-------------------|---------------0--|


              D5      C#5   B5        N.C.A5
  Gtr I
      PM  PM|   PM|     PM|
|-------------------|-----------------------|
|-------------------|-----------------------|
|-------9-----7-----|-6------4---(4)------2-|
|-(2)---9-----7-----|-6------4---(4)------2-|
|-(2)---7-----5-----|-4------2---(2)------0-|
|-(0)-0---0-0---0-0-|---0-0-----------2-4---|
|
| Gtr II
|     PM  PM|   PM|     PM|  ~~~~~~~~~
|-------------------|-----------------------|
|-------------------|-----------------------|
|-------9-----7-----|-6-------------------2-|
|-(2)---9-----7-----|-6-------------------2-|
|-(2)---7-----5-----|-4-----[2]-([2])-----0-|
|-(0)-0---0-0---0-0-|---0-0-----------2-4---|


                               C#B5A5
|------------------|------------------|
|------------------|------------------|
|-(2)--------------|-----------6-4-2--|
|-(2)--2-2-2-2-2-2-|-2-2-2-2-2-6-4-2--|
|-(0)--0-0-0-0-0-0-|-0-0-0-0-0-4-2-0--|
|------------------|------------------|
|
|------------------|------------------|
|------------------|------------------|
|-(2)--------------|-----------6-4-2--|
|-(2)--2-2-2-2-2-2-|-2-2-2-2-2-6-4-2--|
|-(0)--0-0-0-0-0-0-|-0-0-0-0-0-4-2-0--|
|------------------|------------------|


                                  B5  C#5
|-------------------|-------------------|
|-------------------|-------------------|
|-(2)---------------|-------------4-4-6-|
|-(2)-2-2-2-2-2-2-2-|--2--2-2-2-2-4-4-6-|
|-(0)-0-0-0-0-0-0-0-|--0--0-0-0-0-2-2-4-|
|-------------------|-------------------|
|
|                 ~~~~~~~~
|-------------------|-------------------|
|-------------------|-------------------|
|-(2)---------------|-------------4-4-6-|
|-(2)-2-2-2-2-2-2---|-----2-2-2-2-4-4-6-|
|-(0)-0-0-0-0-0-0-7-|-(7)-0-0-0-0-2-2-4-|
|-------------------|-------------------|


       C#m      C#7sus2 C#5        N.C.
                                        PM-|
|-------------------------|-------------------||
|-------5---(5)--4--(4)---|-------------------||
|-(6)---6---(6)--4--(4)-6-|-(6)---------------||
|-(6)--(6)--(6)-(6)-(6)-6-|-(6)---------2-----||
|-(4)--(4)--(4)-(4)-(4)-4-|-(4)----x\------2--||
|-------------------------|-------------------||
|
|-------------------------|-------------------||
|-------5---(5)--4--(4)---|-------------------||
|-(6)---6---(6)--4--(4)-6-|-(6)---------------||
|-(6)--(6)--(6)-(6)-(6)-6-|-(6)---------------||
|-(4)--(4)--(4)-(4)-(4)-4-|-(4)----x\---------||
|-------------------------|------------12\----||


 Pre-chorus
  F#7sus4              G#madd6
  ~~~~~~~PM        PM  ~~~~~~~          PM
|----------0---------|----------0---------|
|------------0-(0)---|------------0-(0)---|
|--------4-----------|--------4-----------|
|-4--(4)-----------4-|-6--(6)-----------6-|
|--------------------|--------------------|
|--------------------|--------------------|
|
| ~~~~~~~PM| ~~~~~~PM  ~~~~~~~PM| ~~~~~~PM
|--------------------|--------------------|
|--------------------|--------------------|
|--------------------|--------------------|
|----------2---------|----------2---------|
|--------2---2-(2)---|--------2---2-(2)---|
|-2--(2)-----------2-|-4--(4)-----------4-|


  Asus2                       G#madd6
  ~~~~~~~
|----------0--------|-----0-------0----|
|--------0---0-(0)--|---0---0---0---0--|
|-------------------|------------------|
|-7--(7)------------|-7-------6--------|
|-------------------|------------------|
|-------------------|------------------|
|
| ~~~~~~~PM| ~~~~~~   PM------------|
|-------------------|------------------|
|-------------------|------------------|
|-------------------|------------------|
|----------2--------|-----2-------2----|
|--------2---2-(2)--|---2---2---2---2--|
|-5--(5)------------|-5-------4--------|

[ Tab from: http://www.guitartabs.cc/tabs/d/dio/caught_in_the_middle_tab_ver_2.html ]
  F#7sus4              G#madd6
  ~~~~~~~PM        PM  ~~~~~~~          PM
|----------0---------|----------0---------|
|------------0-(0)---|------------0-(0)---|
|--------4-----------|--------4-----------|
|-4--(4)-----------4-|-6--(6)-----------6-|
|--------------------|--------------------|
|--------------------|--------------------|
|
| ~~~~~~~PM| ~~~~~~PM  ~~~~~~~PM| ~~~~~~PM
|--------------------|--------------------|
|--------------------|--------------------|
|--------------------|--------------------|
|----------2---------|----------2---------|
|--------2---2-(2)---|--------2---2-(2)---|
|-2--(2)-----------2-|-4--(4)-----------4-|


  Asus2                   A5      B5  N.C.
  ~~~~~~~
|----------0--------|--------------------||
|--------0---0-(0)--|-(0)----------------||
|-------------------|-----2-2-2-2-4-4----||
|-7--(7)------------|-----2-2-2-2-4-4----||
|-------------------|-----0-0-0-0-2-2----||
|-------------------|-----------------0--||
|
| ~~~~~~~PM| ~~~~~~~~~~~~~
|-------------------|--------------------||
|-------------------|--------------------||
|-------------------|-----2-2-2-2-4-4----||
|----------2--------|-----2-2-2-2-4-4----||
|--------2---2-(2)--|-(2)-0-0-0-0-2-2----||
|-5--(5)------------|-----------------0--||


 Chorus
  C#5    E5         B5         Bsus4        A5
  Gtrs I, II
|---------------------|-----------------------|
|---------------------|-----------------------|
|-6--(6)-9-(9)--(9)-4-|-4--(4)--4--(4)--(4)-2-|
|-6--(6)-9-(9)--(9)-4-|-4--(4)--2--(2)--(2)-2-|
|-4--(4)-7-(7)--(7)-2-|-2--(2)-(2)-(2)--(2)-0-|
|---------------------|-----------------------|


         Asus2        A5  B5            C5
                                    PM
|-----------------------|------------------|
|-----------------------|------------------|
|-2--(2)--4--(4)--(4)-2-|-4-4-4-4-4---4-5--|
|-2--(2)--2--(2)--(2)-2-|-4-4-4-4-4---4-5--|
|-0--(0)-(0)-(0)--(0)-0-|-2-2-2-2-2-2-2-3--|
|-----------------------|------------------|


  C#5    E5         B5         Bsus4        A5
|---------------------|-----------------------|
|---------------------|-----------------------|
|-6--(6)-9-(9)--(9)-4-|-4--(4)--4--(4)--(4)-2-|
|-6--(6)-9-(9)--(9)-4-|-4--(4)--2--(2)--(2)-2-|
|-4--(4)-7-(7)--(7)-2-|-2--(2)-(2)-(2)--(2)-0-|
|---------------------|-----------------------|


         Asus2        A5  B5
|-----------------------|------------------||
|-----------------------|------------------||
|-2--(2)--4--(4)--(4)-2-|-4-4-4-4-4-4-4-4--||
|-2--(2)--2--(2)--(2)-2-|-4-4-4-4-4-4-4-4--||
|-0--(0)-(0)-(0)--(0)-0-|-2-2-2-2-2-2-2-2--||
|-----------------------|------------------||


 Guitar solo
      F#7sus4                      G#madd6
      Gtr III
                                                               \0.5/
                      ~~~                                ~~~
|-----12------11h=12-11------|-----14------12h=14p12p11h12---(12)------|
|---x------------------------|---x-------------------------------------|
|-x--------------------------|-x---------------------------------------|
|----------------------------|-----------------------------------------|
|----------------------------|-----------------------------------------|
|----------------------------|-----------------------------------------|
|
|     Gtrs I, II
|--------------0-----(0)-----|--------------0-----------(0)------------|
|--------------0-----(0)-----|--------------0-----------(0)------------|
|----------------------------|-----------------------------------------|
|------4--(4)-(4)----(4)---x-|------6--(6)-(6)----------(6)----------x-|
|------4--(4)-(4)----(4)---x-|------6--(6)-(6)----------(6)----------x-|
|------2--(2)-(2)----(2)---x-|------4--(4)-(4)----------(4)----------x-|


  Asus2
|-/16-14-12h=14p12-----12-----------------------------------|
|------------------14------14-12h14p12----12----------------|
|--------------------------------------13----13-11h13p11S9--|
|-----------------------------------------------------------|
|-----------------------------------------------------------|
|-----------------------------------------------------------|
|
|-------------------0--(0)----------------------------------|
|-------------------0--(0)----------------------------------|
|---2----(2)-------(2)-(2)----------------------------------|
|---2----(2)-------(2)-(2)----------------------------------|
|---0----(0)-------(0)-(0)----------------------------------|
|-----------------------------------------------------------|


  Asus2                  A5           C#5   N.C. F#7sus4
                                      \0.5/  \1/
                                                  ~~~                   ~~~
|----------------------------------------------------|-12-------11h=12-11------|
|-9--------------12p9--------------------------------|--9--------7h==9--7------|
|---11b13==(11)r------11-9h11p9S8h9p8S6-----(6)--(6)-|-------------------------|
|----------------------------------------------------|-------------------------|
|----------------------------------------------------|-------------------------|
|----------------------------------------------------|-------------------------|
|
|                   PM                       PM
|-0--------------------------------------------------|-----------0-----(0)-----|
|-0--------------------------------------------------|-----------0-----(0)-----|
|-2----------------------2------2-----6--------------|-------------------------|
|-2----------------------2------2-----6-----------4--|-(4)--(4)-(4)----(4)---x-|
|-0-----------------0----0------0-----4-----------4--|-(4)--(4)-(4)----(4)---x-|
|--------------------------------------------0----2--|-(2)--(2)-(2)----(2)---x-|


  G#madd6
                        ~~~
|-14------12h=14p12p11S12------|
|-10-------9h=10p=9p=7S=9------|
|------------------------------|
|------------------------------|
|------------------------------|
|------------------------------|
|
|----------0-----------(0)-----|
|----------0-----------(0)-----|
|------------------------------|
|--6--(6)-(6)----------(6)---x-|
|--6--(6)-(6)----------(6)---x-|
|--4--(4)-(4)----------(4)---x-|


  Asus2            N.C.A5B5
                                                     ~~~~~
|-16-14-----12-----17----16---17---|-(17)b19==(17)-(17)r----||
|-12-10------9-----14----12---14---|-(14)b16==(14)-(14)r----||
|----------------------------------|------------------------||
|----------------------------------|------------------------||
|----------------------------------|------------------------||
|----------------------------------|------------------------||
|
|                      PM
|---------------0--(0)-------------|------------------------||
|---------------0--(0)-------------|------------------------||
|--2----(2)----(2)-(2)------2----4-|--(4)-------------------||
|--2----(2)----(2)-(2)------2----4-|--(4)-------------------||
|--0----(0)----(0)-(0)------0----2-|--(2)-------------------||
|----------------------4-----------|------------------------||


 Verse 3
  A5                          C#B5A5                               C#B5E5
  Gtrs I, II
    PM----------------------|                PM------------------|
|-----------------|-----------------|------------------|------------------|
|-----------------|-----------------|------------------|------------------|
|-2---------------|-----------6-4-2-|-(2)--------------|-----------6-4----|
|-2-2-2-2-2-2-2-2-|-2-2-2-2-2-6-4-2-|-(2)--2-2-2-2-2-2-|-2-2-2-2-2-6-4-2--|
|-0-0-0-0-0-0-0-0-|-0-0-0-0-0-4-2-0-|-(0)--0-0-0-0-0-0-|-0-0-0-0-0-4-2-2--|
|-----------------|-----------------|------------------|---------------0--|


              D5      C#5   B5        N.C.A5
  Gtr I
      PM  PM|   PM|     PM|
|-------------------|-----------------------|
|-------------------|-----------------------|
|-------9-----7-----|-6------4---(4)------2-|
|-(2)---9-----7-----|-6------4---(4)------2-|
|-(2)---7-----5-----|-4------2---(2)------0-|
|-(0)-0---0-0---0-0-|---0-0-----------2-4---|
|
| Gtr II
|     PM  PM|   PM|     PM|  ~~~~~~~~~
|-------------------|-----------------------|
|-------------------|-----------------------|
|-------9-----7-----|-6-------------------2-|
|-(2)---9-----7-----|-6-------------------2-|
|-(2)---7-----5-----|-4-----[2]-([2])-----0-|
|-(0)-0---0-0---0-0-|---0-0-----------2-4---|


                               C#B5A5
         PM------------------|
|------------------|------------------|
|------------------|------------------|
|-(2)--------------|-----------6-4-2--|
|-(2)--2-2-2-2-2-2-|-2-2-2-2-2-6-4-2--|
|-(0)--0-0-0-0-0-0-|-0-0-0-0-0-4-2-0--|
|------------------|------------------|
|
|        PM------------------|
|------------------|------------------|
|------------------|------------------|
|-(2)--------------|-----------6-4-2--|
|-(2)--2-2-2-2-2-2-|-2-2-2-2-2-6-4-2--|
|-(0)--0-0-0-0-0-0-|-0-0-0-0-0-4-2-0--|
|------------------|------------------|


                                B5  C#5      C#m      C#7sus2 C#N.C.
  Gtrs I, II
|-------------------|-----------------|--------------------------|
|-------------------|-----------------|-------5---(5)--4--(4)----|
|-(2)---------------|-----------4-4-6-|-(6)---6---(6)--4--(4)-6--|
|-(2)-2-2-2-2-2-2-2-|-2-2-2-2-2-4-4-6-|-(6)--(6)--(6)-(6)-(6)-6--|
|-(0)-0-0-0-0-0-0-0-|-0-0-0-0-0-2-2-4-|-(4)--(4)--(4)-(4)-(4)-4--|
|-------------------|-----------------|--------------------------|


              B5D#C#5      C#m      C#7sus2 C#5        N.C.
                                                           PM|
|-------------------|-------------------------|----------------||
|-------------------|-------5---(5)--4--(4)---|----------------||
|-(6)-6-6-6-6-4-8-6-|-(6)---6---(6)--4--(4)-6-|-(6)------------||
|-(6)-6-6-6-6-4-8-6-|-(6)--(6)--(6)-(6)-(6)-6-|-(6)--------2---||
|-(4)-4-4-4-4-2-6-4-|-(4)--(4)--(4)-(4)-(4)-4-|-(4)----x\----2-||
|-------------------|-------------------------|----------------||


 Pre-chorus
  F#7sus4              G#madd6
  Gtr I
  ~~~~~~~PM        PM  ~~~~~~~          PM
|----------0---------|----------0---------|
|------------0-------|------------0-------|
|--------4------4----|--------4------4----|
|-4--(4)-----------4-|-6--(6)-----------6-|
|--------------------|--------------------|
|--------------------|--------------------|
|
| Gtr II
| ~~~~~~~PM| ~~~~~~PM  ~~~~~~~PM| ~~~~~~PM
|--------------------|--------------------|
|--------------------|--------------------|
|--------------------|--------------------|
|----------2---------|----------2---------|
|--------2---2-(2)---|--------2---2-(2)---|
|-2--(2)-----------2-|-4--(4)-----------4-|


  Asus2                       G#madd6
  ~~~~~~~             PM------------|
|----------0--------|-----0-------0----|
|--------0---0-(0)--|---0---0---0---0--|
|-------------------|------------------|
|-7--(7)------------|-7-------6--------|
|-------------------|------------------|
|-------------------|------------------|
|
| ~~~~~~~PM| ~~~~~~   PM------------|
|-------------------|------------------|
|-------------------|------------------|
|-------------------|------------------|
|----------2--------|-----2-------2----|
|--------2---2-(2)--|---2---2---2---2--|
|-5--(5)------------|-5-------4--------|


  F#7sus4              G#madd6
  ~~~~~~~PM        PM  ~~~~~~~          PM
|----------0---------|----------0---------|
|------------0-------|------------0-------|
|--------4------4----|--------4------4----|
|-4--(4)-----------4-|-6--(6)-----------6-|
|--------------------|--------------------|
|--------------------|--------------------|
|
| ~~~~~~~PM| ~~~~~~PM  ~~~~~~~PM| ~~~~~~PM
|--------------------|--------------------|
|--------------------|--------------------|
|--------------------|--------------------|
|----------2---------|----------2---------|
|--------2---2-(2)---|--------2---2-(2)---|
|-2--(2)-----------2-|-4--(4)-----------4-|


  Asus2                   A5      B5  N.C.
  ~~~~~~~
|----------0--------|--------------------||
|--------0---0-(0)--|-(0)----------------||
|-------------------|-----2-2-2-2-4-4----||
|-7--(7)------------|-----2-2-2-2-4-4----||
|-------------------|-----0-0-0-0-2-2----||
|-------------------|-----------------0--||
|
| ~~~~~~~PM| ~~~~~~~~~~~~~
|-------------------|--------------------||
|-------------------|--------------------||
|-------------------|-----2-2-2-2-4-4----||
|----------2--------|-----2-2-2-2-4-4----||
|--------2---2-(2)--|-(2)-0-0-0-0-2-2----||
|-5--(5)------------|-----------------0--||


   Chorus
    C#5    E5         B5         Bsus4        A5
    Gtrs I, II
||----------------------|-----------------------|
||o---------------------|-----------------------|
||--6--(6)-9-(9)--(9)-4-|-4--(4)--4--(4)--(4)-2-|
||--6--(6)-9-(9)--(9)-4-|-4--(4)--2--(2)--(2)-2-|
||o-4--(4)-7-(7)--(7)-2-|-2--(2)-(2)-(2)--(2)-0-|
||----------------------|-----------------------|


         Asus2        A5  B5   (E5/B)    B5
                                            4x
|-----------------------|-------------------||
|-----------------------|------------------o||
|-2--(2)--4--(4)--(4)-2-|-4--4--4----4---4--||
|-2--(2)--2--(2)--(2)-2-|-4--4--2----2---4--||
|-0--(0)-(0)-(0)--(0)-0-|-2--2-(2)--(2)--2-o||
|-----------------------|-------------------||



Comments