Dio - Another Lie Chords & Tabs

 

Another Lie Chords & Tabs

Dio Chords & Tabs

Version: 1 Type: Tab 0 ratings
1 star 2 stars 3 stars 4 stars 5 stars
comments

Another Lie Tab

   
-----------------------------------------------------------------------
			     Another Lie - Dio

Tabbed by: Shane
Email: Deadbydawn103@yahoo.com

Tuning: Standard

Intro 
                                                                     3x
e|--------------------------------------------------------------------|
B|--------------------------------------------------------------------|
G|--------------------------------------------------------------------|
D|-------4------------------------------------------------------------|
A|-4-4-4-2-4-4-4-4-4-6------------------------------------------------|
E|-2-2-2---2-2-2-2-2-4------------------------------------------------|
[ Tab from: http://www.guitartabs.cc/tabs/d/dio/another_lie_tab.html ]
                                                                     1x
e|--------------------------------------------------------------------|
B|--------------------------------------------------------------------|
G|--------------------------------------------------------------------|
D|-------3-----------------3------------------------------------------|
A|-3-3-3-1-3-3-3-3-3-4-4-4-1-3-3--------------------------------------|
E|-1-1-1---1-1-1-1-1-2-2-2---1-1--------------------------------------|

                                                                      1x
e|--------------------------------------------------------------------|
B|--------------------------------------------------------------------|
G|--------------------------------------------------------------------|
D|-------3-----------------3------------------------------------------|
A|-3-3-3-1-3-3-3-3-3-4-4-4-1-3-3-5-4-7-7------------------------------|
E|-1-1-1---1-1-1-1-1-2-2-2---1-1-3-2-5-5------------------------------|


| /  slide up
| \  slide down
| h  hammer-on
| p  pull-off
| ~  vibrato
| +  harmonic
| x  Mute note
=======================================================================
Comments