Dinosaur Jr - Sludgefeast Chords & Tabs

 

Sludgefeast Chords & Tabs

Dinosaur Jr Chords & Tabs

Version: 2 Type: Tab 0 ratings
1 star 2 stars 3 stars 4 stars 5 stars
comments

Sludgefeast Tab

   
#----------------------------------PLEASE NOTE---------------------------------#
#This file is the author's own work and represents their interpretation of the #
#song. You may only use this file for private study, scholarship, or research. #
#------------------------------------------------------------------------------##
 <01GZX6PRERUQ8ZDVM4@asu.edu>
Content-Transfer-Encoding: 7BIT


Sludgefeast
Dinosaur Jr.

riff #1:
E----------------------------|
B----------------------------|
G--6--6--6-6--6-6------------|
D--6--6--6-6--6-6------------|
A--4--4--4-4--4-4------------|
E-----------------0-0-0-0----|
repeated twice

then play riff#2:
E---------------------|
B------------------4--|
G--7--7-9-7-9----5-2--|
D--7-----------3-5----|
A--5-----------3-3----|
E--------------1------|
four times

then go back to riff#1 and play that another four times

riff#3 is:
e--------------------|
B--9-7-9-10-7-5-3-2--|
G--------------------|
repeated twice
[ Tab from: http://www.guitartabs.cc/tabs/d/dinosaur_jr/sludgefeast_tab_ver_2.html ]
the bridge before the chorus is hitting the 7th fret of the B string

the chorus goes A-F#m-A-F#m-A-F#m-E
the lyrics are:

A    F#m
     I'm waiting
A    F#m
     Please come back
A    F#m
     Got the guts now
E
     To meet your eyes

Those guts are killing
But I can't stop now
Gotta get it for you girl
Before I forget how

Please wanna
Hang around
______ wonder
What is we found

for the last line, "what is is we found", play:
E--0-------0--|
B--0--3-0--0--|
G--1-------1--|
D--2-------2--|
A--2-------2--|
E--0-------0--|

then you go back to a variation of riff#3 that you play once, and then it's
riff#1 while two solos go at once.

the song just repeats after that


the little bit tacked onto the end of the song with the guitar solo goes:
D--5--4-4-4--5--2-2-2--|
A--5--4-4-4--5--2-2-2--|
E--3--2-2-2--3--0-0-0--|

have fun,
"smash your head on the punk rock", so to speak


Thanks to the original poster.

Peace,
Paul Z
Comments