Dinosaur Jr - Just Like Heaven Chords & Tabs

 

Just Like Heaven Chords & Tabs

Dinosaur Jr Chords & Tabs

Version: 1 Type: Tab 0 ratings
1 star 2 stars 3 stars 4 stars 5 stars
comments

Just Like Heaven Tab

   
"just like heaven"
dinosaur jr.
j. mascis
from the "absolute 90's" compilation on MCA
original song by the cure
transcribed by ryan ray (eclectic_koolaid@hotmail.com)

*i saw a tab of this somewhere before, but it didn't have the solo,
and i don't think that it was on OLGA.

bass intro:
    G     D     Am    C
G|--0-----7-----5-----------|
D|--x-----0-----7-----5-----|
A|--2-----5-----7-----3-----|
E|--3-----x-----5-----------|

acoustic guitar
    G    D    Am   C
e|--3----2----0----0-----|
B|--3----3----1----1-----|
G|--0----2----2----0-----|
D|--0----0----2----2-----|
A|--2---------0----3-----|
E|--3--------------------|

loud distorted, throughout
e|--------------|
B|--------------|
G|----7-----5---|
D|-5--0--7--x---|
A|-x--5--0--3---|
E|-3-----5------|

0:18-distortion + flanger + wah-wah + phaser = ???
e|----------------------------------------------|
B|----------------------------------------------|
G|--12v~--11v~\-9v-\-7v--5v~~-----4v~--5v~--7v~-|
D|----------------------------------------------|
A|--10v~--9v~-\-7v-\-5v--3v~~-----2v~--3v~--5v~-|
E|----------------------------------------------|

0:24-frampton
x2, (may be octaved, probably on the high E and B)
e|--------------------------------------------------------------------|
B|--------------------------------------------------------------------|
G|-12-12-11-11-9------------------------------------------------------|
D|----------------12-12-10-10-9--10-10-10q9q7-5-5-5-7-7-9-------------|
A|--------------------------------------------------------------------|
E|--------------------------------------------------------------------|

0:36-turnaround
e|--------------------------------------------------------------------|
B|-------------------------10-10-12-12-13--15-15-13-13-12-------------|
G|-4-4-5-5-7--9-9-11-11-12--------------------------------------------|
D|--------------------------------------------------------------------|
A|--------------------------------------------------------------------|
E|--------------------------------------------------------------------|

e|-----------------------------------------------------------|
B|-----------------------------------------------------------|
G|-12-12-11-11-9---------------------------------------------|
D|----------------12-12-10-10-9--10-10-10q9q7-5-5-5-7-7-9----|
A|-----------------------------------------------------------|
E|-----------------------------------------------------------|

a feedback drenched electric plays this half-time t/o the verses.
e|---------------------------------|
B|---------------------------------|
G|-12~--11~-9~---------------------|
D|------------12~-10~-9~-10~-12~---|
A|-10~--9~--7~---------------------|
E|------------10~-8~--7~-8~--10~---|
[ Tab from: http://www.guitartabs.cc/tabs/d/dinosaur_jr/just_like_heaven_tab.html ]
0:48-acoustic-
G D Am C
"show me how you do that trick...the one that makes me scream"
she said, "the one that makes me laugh", she said, and threw her arms around 
my neck..
show me how you do it and i'll promise you a promise that
i'll run away with you--i'll run away with you...
x2
e|--------------------------------------------------------------------|
B|--------------------------------------------------------------------|
G|-12-12-11-11-9------------------------------------------------------|
D|----------------12-12-10-10-9--10-10-10q9q7-5-5-5-7-7-9-------------|
A|--------------------------------------------------------------------|
E|--------------------------------------------------------------------|
G D Am C
spinning on that dizzy air, i kissed her face, i kissed her hair.
dreamed of all the different ways i had to make her glow.
"why are you so far away?" she said "why won't you ever know
that i'm in love with you.  i am in love with you..
1:47
(some palm muting)
hard F#m
     you
G
soft and only
F#m    G
you....lost and lonely
F#m
you
G                 C
strange as angels d...
                                        G
sitting in the water you're just like a dream

2:02: solo-
just distorted electric fender..
    G          D                Am          C
e|--------------------------------------------------------------------|
B|--------------------------------------------------------------------|
G|--12b--12v~--12b14r12v~--15a*-16---16--17-19b19b20------------------|
D|---------------------------------17--17-----------------------------|
A|--10b--10v~--10b12r10v~---------------------------------------------|
E|--------------------------------------------------------------------|
                        you're just like a dream
   G            D           Am          C
e|-------------------------------------------x------------------------|
B|-------------------------------------------x------------------------|
G|-19-----------16-16br\12--9\7-7\5-5\4-4/7v~x------------------------|
D|----19-17--19------------------------------x------------------------|
A|-------------------------------------------pksk.--------------------|
E|--------------------------------------------------------------------|
   G           D         Am              C
e|--------------------------------------------------------------------|
B|--------------------------------------------------------------------|
G|-7-0--2h4h0--5-4-0-0---0t2t4--4v-5-4-5-7b7b/9b-12-------------------|
D|--------------------------------------------------------------------|
A|--------------------------------------------------------------------|
E|--------------------------------------------------------------------|
   G                  D           Am        C
e|---------------------------------------------|
B|-----13p12h13----------13p12h13--------------|
G|-12~----------12-12~------------12--14ghb----|
D|---------------------------------------------|
A|---------------------------------------------|
E|---------------------------------------------|

G D Am C
daylight whipped ....

F#m
you...


notes:
the solo and any lead for that matter have great amounts of sonic
noise.  go freestyle on that.  all i could write was the notes,
and i probably got some of those wrong, too.

feedback, corrections, mail---> eclectic_koolaid@hotmail.com

*this tab represents the author's own interpretation of the sounds,
and it's my own work.
Comments