Dinosaur Jr - Drawerings Chords & Tabs

 

Drawerings Chords & Tabs

Dinosaur Jr Chords & Tabs

Version: 1 Type: Tab 0 ratings
1 star 2 stars 3 stars 4 stars 5 stars
comments

Drawerings Tab

   
-------------------------------------------------------------------------------
			     Drawerings - Dinosaur Jr.
-------------------------------------------------------------------------------
Tabbed by: Dan Jenkins	
Email: Endisforever132@hotmail.com
AIM: Endisforever132

Tuning: Standard
    
Verses 
    G         D         Am        C
e|---------------------------------------------------|
B|---------------------------------------------------|
G|------------7-7--77---5-5--55---5-5--55--5-4-2-4---|    
D|--5-5--55---7-7--77---7-7--77---5-5--55------------|
A|--5-5--55---5-5--55---7-7--77---3-3--33------------|
E|--3-3--33-------------5-5--55----------------------|

    G         D         Am        C
e|---------------------------------------------------|
B|---------------------------------------------------|
G|------------7-7--77---5-5--55---5-7----------------|
D|--5-5--55---7-7--77---7-7--77---5-7----------------|
A|--5-5--55---5-5--55---7-7--77---3-5----------------|
E|--3-3--33-------------5-5--55----------------------|

 G         D         Am        C
e|---------------------------------------------------|
B|---------------------------------------------------|
G|------------7-7--77---5-5--55---5-5--55--5-4-2-4---|    
D|--5-5--55---7-7--77---7-7--77---5-5--55------------|
A|--5-5--55---5-5--55---7-7--77---3-3--33------------|
E|--3-3--33-------------5-5--55----------------------|

    G         D         Am        C
e|---------------------------------------------------|
B|---------------------------------------------------|
G|------------7-7--77---5-5--55---5-7----------------|
D|--5-5--55---7-7--77---7-7--77---5-7----------------|
A|--5-5--55---5-5--55---7-7--77---3-5----------------|
E|--3-3--33-------------5-5--55----------------------|


Bm   C    Am
e|---------------------------------------------------|
B|--3-3----------------------------------------------|
G|--4-4--5-5--5-5------------------------------------|
D|--4-4--5-5--7-7------------------------------------|    Play this four times,
A|--2-2--3-3--7-7------------------------------------|    then go back to the beginning.
E|------------5-5------------------------------------|


Chorus (Rhythm Guitar)
e|---------------------------------------------------|
B|---------------------------------------------------|
G|-----------5---------------------------------------|
D|--2-2-2-2--5-7-9-----------------------------------|    Play this eight times.
A|--2-2-2-2--3-7-9-----------------------------------|
E|--0-0-0-0----5-7-----------------------------------|

Chorus (Lead)
e|-----------20--19b---------------------------------|
B|-------------17------------------------------------|
G|---------------------------------------------------|
D|---------------------------------------------------|    Play this eight times, 
A|---------------------------------------------------|    along with the rhythm.
E|---------------------------------------------------|
[ Tab from: http://www.guitartabs.cc/tabs/d/dinosaur_jr/drawerings_tab.html ]
Solo
e|------------------------------------------------------------5--|
B|----------------------------------------------------------5---7-|
G|--2b-2b-------------------5---5-7-7b-9-7b-7b-7b-7b-7-7b-7------|
D|-------7b-5-7b-7b-5-7-5-7---7----------------------|    During the solo, the rest   
A|---------------------------------------------------|    the band plays G D Am C 
E|---------------------------------------------------|

e|---------------------------------------------------------------------------|
B|-7-----5-5b----------------------------------------------------------------|
G|---7-7------7-5-4-5-4-5b-4--------------------------------------------5-5b-|
D|--------------------------5-5-4-5-4-5-7-7b---0----------------------5------|
A|-------------------------------------------5---5-5-7-5------5b---5b--------|
E|------------------------------------------------------7-8-7----7-----------|

e|-8-8-7-5---5---5-----------------------------------------------------------|
B|---------8---8---8-8-7-8-7-----------------------------5-------------------|
G|---------------------------7-5-5-4-5b------------5-4-5---7-7-5-4-7-5-------|
D|----------------------------------------5-7-5-7b---------------------------|
A|--------------------------------------7------------------------------------|
E|---------------------------------------------------------------------------|

e|-15------------15-17-15-17-15------------------------------15--------------------|
B|----15-12h13p12--------------19-17-19-17-19-17-15-12h13p12h----------------------|
G|-------------------------------------------------------------14b-12-12-11-14-12--|
D|---------------------------------------------------------------------------|
A|---------------------------------------------------------------------------|
E|---------------------------------------------------------------------------|

e|-------------------------------------------------------------5--5----------|
B|-------------------8-----------------------------------5-5-8---8--8-7-8-8--|
G|-4-7-7-5p4h5--------------------7---5---4---7---5---4----------------------|
D|-------------5-5h7---9-4h5-7p5----0---0---0---0---0------------------------|
A|---------------------------------------------------------------------------|
E|---------------------------------------------------------------------------|

e|------------------------------------------------------15-----17-15-17-15---|
B|-8-7---------------------------888888-10b-10b-10b-10b----10b---------------|
G|-----7-7-4-5-7-5-------4-5-4---777777--------------------------------------|
D|-------------------5-7-------7---------------------------------------------|
A|-----------------7---------------------------------------------------------|
E|---------------------------------------------------------------------------|

e|-15-17-20-19-------------------------|
B|-------------------------------------| Then it fades...
G|-------------------------------------| 
D|-------------------------------------| 
A|-------------------------------------| 
E|-------------------------------------|

| b  bend
| /  slide up
| \  slide down
| h  hammer-on
| p  pull-off
| ~  vibrato
| +  harmonic
| x  Mute note
===============================================================================
Comments