Dingees - Could Be Worse Chords & Tabs

 

Could Be Worse Chords & Tabs

Dingees Chords & Tabs

Version: 2 Type: Bass Tab 0 ratings
1 star 2 stars 3 stars 4 stars 5 stars
comments

Could Be Worse Bass Tab

Song: Could Be Worse
Band: The Dingees
Album: Armageddon Massive   
Tabbed by: Mark (sittingcow@aol.com)
Ok, this is the first song I've ever actually figured out myself, so if
it's wrong just kill me.
[ Tab from: http://www.guitartabs.cc/tabs/d/dingees/could_be_worse_btab_ver_2.html ]
Verse:
G:---------------------------------------------------------------
D:-----------------4--------------------------------------------
A:--(0)--2--4-5---5----4-------------------------------------
E:----------------------------3-3-------------------------------
Don't play the open A the first time.

Chorus:
G:---------------------------------------------------------------
D:---------------------------------------------------------------
A:---5-0-2-3-5--2-0-3--------------------------------------
E:---------------------------------------------------------------
Comments