Dimmu Borgir - Under Korpens Vinger Chords & Tabs

 

Under Korpens Vinger Chords & Tabs

Dimmu Borgir Chords & Tabs

Version: 1 Type: Bass Tab 0 ratings
1 star 2 stars 3 stars 4 stars 5 stars
comments

Under Korpens Vinger Bass Tab

standard

G||------------------|------------------|-------------------|
D||------------------|------------------|-------------------|
A||------------------|------------------|-------------------|
E||------------------|------------------|--5----------------|


                                                                              
-------------------|----------------------------|----------------------------|
-------------------|--------9--10--9------------|--------9--10--9------------|
-------------------|-----7------------8--10--8--|-----7------------8--10--8--|
--5----------------|--5-------------------------|--5-------------------------|


                                                          
----------------------------|----------------------------|
--------9--10--9------------|--------9--10--9------------|
-----7------------8--10--8--|-----7------------8--10--8--|
--5-------------------------|--5-------------------------|


                               3x                                              
|------------------------------||----------------------|----------------------|
|*--------9--10--9------------*||----------------------|----------------------|
|*-----7------------8--10--8--*||--7----7----7----7----|--5----5----5----5----|
|---5--------------------------||----------------------|----------------------|


                                                                     
----------------------|----------------------|----------------------|
----------------------|----------------------|----------------------|
--7----7----7----7----|--5----5----5----5----|--2----2----2----2----|
----------------------|----------------------|----------------------|


                                                                     
----------------------|----------------------|----------------------|
----------------------|----------------------|----------------------|
--3----3----0----0----|--2----2----2----2----|--3----3----0----0----|
----------------------|----------------------|----------------------|


                                                                     
----------------------|----------------------|----------------------|
----------------------|----------------------|----------------------|
--7----7----7----7----|--5----5----5----5----|--7----7----7----7----|
----------------------|----------------------|----------------------|


                                                                     
----------------------|----------------------|----------------------|
----------------------|----------------------|----------------------|
--5----5----5----5----|--2----2----2----2----|--3----3----0----0----|
----------------------|----------------------|----------------------|


                                              
----------------------|----------------------|
----------------------|----------------------|
--2----2----2----2----|--3----3----0----0----|
----------------------|----------------------|


                                                                              3x
|--------------------------------------|--------------------------------------||
|*-------------------------------------|-------------------------------------*||
|*-----------7----7-----------10----9--|-----------7----7--5--5--5--3--3--3--*||
|---0--0--0----------0--0--0-----------|--0--0--0-----------------------------||


                                                                    
-------------------------------------|--------------|--------------|
-------------------------------------|--------------|--------------|
-----------7----7--5--5--5--3--3--3--|--------------|--------------|
--0--0--0----------------------------|--------------|--------------|


                                                           
--------------|--------------||---------------------------|
--------------|--------------||*--------------------------|
--------------|--------------||*--0-0-0-0-0-0-------------|
--------------|--------------||---------------1-1-1-1-1-1-|


                           3x                            
---------------------------||---------------------------|
--------------------------*||*--------------------------|
--------------3-----------*||*--------------------------|
--0-0-0-0-0-0---0-0-3-3-3--||---0-0-0-0-0-0-2-2-2-3-3-3-|


                           3x                            
---------------------------||---------------------------|
--------------------------*||*--------------------------|
--2-2-2-2-2-2-0-0-0-5-5-5-*||*--0-0-0-0-0-0-2-2-2-3-3-3-|
---------------------------||---------------------------|

[ Tab from: http://www.guitartabs.cc/tabs/d/dimmu_borgir/under_korpens_vinger_btab.html ]
                                                      
--------------------------|--------------------------|
--3-3-3-3-3-2-2-2-3-3-3-2-|--------------------------|
--------------------------|--0-0-0-0-0-0-2-2-2-3-3-3-|
--------------------------|--------------------------|


                                                         
---------------------------||---------------------------|
--------------------------*||*--------------------------|
--5-5-5-5-5-5-3-3-3-3-3-2-*||*--0-0-0-0-0-0-------------|
---------------------------||---------------1-1-1-1-1-1-|


                           3x                               3x
---------------------------||---------------|---------------||
--------------------------*||*--------------|--------------*||
--------------3-----------*||*--------------|--------------*||
--0-0-0-0-0-0---0-0-3-3-3--||---------------|---------------||


                                                       
---------------------------|--------------------------|
*--------------------------|--3-3-3-3-3-2-2-2-3-3-3-2-|
*--0-0-0-0-0-0-2-2-2-3-3-3-|--------------------------|
---------------------------|--------------------------|


                                                        
--------------------------|---------------------------||
--------------------------|--------------------------*||
--0-0-0-0-0-0-2-2-2-3-3-3-|--5-5-5-5-5-5-3-3-3-3-3-2-*||
--------------------------|---------------------------||


                                                                         
--------------------------|------------------------|--------------------|
*-------------------------|------------------------|--------------------|
*----------------------2--|--3----3----3--3--3--2--|------2-------------|
---0--------0----0--0-----|------------------------|---------------0----|


           3x                                              
-----------||----------------------|----------------------|
----------*||----------------------|----------------------|
----------*||--7----7----7----7----|--5----5----5----5----|
-----------||----------------------|----------------------|


                                                                     
----------------------|----------------------|----------------------|
----------------------|----------------------|----------------------|
--7----7----7----7----|--5----5----5----5----|--2----2----2----2----|
----------------------|----------------------|----------------------|


                                                                     
----------------------|----------------------|----------------------|
----------------------|----------------------|----------------------|
--3----3----0----0----|--2----2----2----2----|--3----3----0----0----|
----------------------|----------------------|----------------------|


                                                                     
----------------------|----------------------|----------------------|
----------------------|----------------------|----------------------|
--7----7----7----7----|--5----5----5----5----|--7----7----7----7----|
----------------------|----------------------|----------------------|


                                                                     
----------------------|----------------------|----------------------|
----------------------|----------------------|----------------------|
--5----5----5----5----|--2----2----2----2----|--3----3----0----0----|
----------------------|----------------------|----------------------|


                                              
----------------------|----------------------|
----------------------|----------------------|
--2----2----2----2----|--3----3----0----0----|
----------------------|----------------------|


                                                                              2x
|--------------------------------------|--------------------------------------||
|*-------------------------------------|-------------------------------------*||
|*-----------7----7-----------10----9--|-----------7----7--5--5--5--3--3--3--*||
|---0--0--0----------0--0--0-----------|--0--0--0-----------------------------||


                                                                            
-------------------------------------|-------------------------------------|
-------------------------------------|-------------------------------------|
-----------7----7-----------10----9--|-----------7----7--5--5--5--3--3--3--|
--0--0--0----------0--0--0-----------|--0--0--0----------------------------|


                     
-------------------||
-------------------||
-------------------||
--0----------------||
Comments