Dimmu Borgir - The Mourning Palace Chords & Tabs

 

The Mourning Palace Chords & Tabs

Dimmu Borgir Chords & Tabs

Version: 1 Type: Tab 1 rating
1 star 2 stars 3 stars 4 stars 5 stars
comments

The Mourning Palace Tab

The Mourning Palace - Dimmu Borgir
Tablature by Lord Johnie

Clasic tunning

------------------------------------------------

h - hammer on
p - pull off
b - bend string up
r - release bend
/ - slide up
\ - slide down
~ - vibrato
T - right hand tap
. - palm mute (pm. . .. ...)

------------------------------------------------


Intro w/ keyboard

(0:11) Intro Riff
e|---------------------------------|
B|---------------------------------|
G|---------------------------------|
D|-4-7-6-9-------------------------|
A|-2-5-4-7-------------------------|
E|---------------------------------|


(0:13) Verse Riff
e|---------------------------------------------|
B|---------------------------------------------|
G|---------------------------------------------|Guitars
D|-------------------------------------4-7-6-9-|  1&2
A|-4-----4-----4-----4-----4-----4-----2-5-4-7-|
E|-2-222-2-222-2-222-2-222-2-222-2-222---------|

(0:47) Riff 1
E|-------------------------------|
A|-------------------------------|
D|-------------------------------|
G|-------------9-----9-8---------|
B|-----4-----4-7-777-7-6-9-----9-|
e|-222-2-222-2-----------7-777-7-|
...   ...     ...       ...

E|----------------------------------|
A|----------------------------------|
D|-----------------------------/11~-|
G|--------------9-------------------|
B|-----4-----4--7-77-9-7-6---9------|
e|-222-2-222-2-------------7--------|
...   ...      ..       .

[ Tab from: http://www.guitartabs.cc/tabs/d/dimmu_borgir/the_mourning_palace_tab.html ]

(1:58) fill

"Hear the cries from the mourning palace..."

e|-----------------------|
B|-----------------------|
G|--9--------------------|
D|--10-------------------|
A|--12-------------------|
E|--12-------------------|


(2:00) Riff 2
This riff is all tremolo picked (Very fast Picked)
e|--------------------|
B|--------------------|
G|--------------------|
D|----------5-4-5-4-5-|
A|-3-2-5-3--7-7-7-7-7-|
E|-5-5-5-5------------|


(2:40) Riff 3
9x
e|--------------------------------------------|
B|--------------------------------------------|
G|--------------------------------------------|
D|-----9-----8-----9-----8-----9-----8--5/7-8-|
A|-7-7---7-7---7-7---7-7---7-7---7-7----3/5-6-|
E|--------------------------------------------|
pm . .   . .   . .   . .   . .   . .


(3:41) Riff 4
8x
Each note is Tremolo Picked (Very fast Picked)
e|--------------------------|
B|--------------------------|
G|--------------------------|
D|---4---5-4-2----------5-4-|
A|-2---2--------5-----2-----|
E|------------3---3-0-------|


(4:28) Riff 5
4x
e|-------------------------------------------------------|
G|-------------------------------------------------------|
B|-------------------------4-----------------------------|
D|---4---4-5-4-2---4---4-5-----4---4-5-4-2-----------5-4-|
A|-2---2---------2---2-------2---2-----------5-----2-----|
E|-----------------------------------------3---3-0-------|


(4:48)
Repeat riff 4
4x


Comments