Dimmu Borgir - Reptile Chords & Tabs

 

Reptile Chords & Tabs

Dimmu Borgir Chords & Tabs

Version: 2 Type: Tab 0 ratings
1 star 2 stars 3 stars 4 stars 5 stars
comments

Reptile Tab

   
Key:
p=pull-off
h=hammer-on
/ \=slide
pm=palm mute
..=tremelo picking
T =tapping
T/=tap slide
D=drop whammy Bar


Intro with keys ............................................................|last time   |
-----------------------------------------------------------------------------------------|
-----------------------------------------------------------------------------------------|
-----------------------------------------------------------------------------------------|
-----------------------------------------------------------------------------8-8--8--8---|
-----------------------------------------------------------------------------6-6--6--6---|
-----------------------------------------------------------------------------6-6--6--6---|

Riff 1a x 4
-------------------------------|
-------------------------------|
----------------------8--8--8--|
----------------------8--8--8--|
----------------------6--6--6--|
---555555555555555555-6--6--6--|
pm ..................

Riff 1b x 2
-----------------------------------------------------------------------------------------------|
-----------------------------------------------------------------------------------------------|
-----------------------------------------------------------------------------------------------|
-----------------------------------------------------------------------------------------------|
--------------------------7...8...7...6......-----------------------7...8...7...----8...7...---|
---5......0...5...8...5...-------------------5......0...5...8...5...------------6...-----------|
 pm.......................                 pm.......................


Riff 1c x 2
-------------------------------------------------------------------------------6----6---------|
-------------------------------------------------------------------------------7-----7--------|
-------------------------------------------------------------------------------8------8-------|
---7----7-7--7----7-7--7----7-7---888-888-888----7----7-7--7----7-7--7----7-7--8-------8------|
---7----7-7--7----7-7--7----7-7---666-666-666----7----7-7--7----7-7--7----7-7--6--------6-----|
---5----5-5--5----5-5--5----5-5---666-666-666----5----5-5--5----5-5--5----5-5--6---------6----|
                                pm...........                                      | rake |

Riff 2 x 4
----------------------------------------------------------------------------------|
----------------------------------------------------------------------------------|
----------------------------------------------------------------------------------|
---5---5-5-5-5---5-5-5-5---5-5-5-5--5-5-5-5---5-5-5-5---5-5-5-5---5-5-5-5--5-5-5--|
---3---3-3-3-3---3-3-3-5---5-5-5-5--5-5-5-3---3-3-3-3---3-3-3-5---5-5-5-5--5-5-5--|
---3---3-3-3-3---3-3-3-3---3-3-3-3--3-3-3-3---3-3-3-3---3-3-3-5---5-5-5-5--5-5-5--|

-----------------------------------------------|
-----------------------------------------------|
-----------------------------------------------|
---2-----------6------3-------------2----------|
---2-----------6------3-------------2----------|
---0-----------4------1-------------0----------|

Riff 3 x 2
---------------------------------------------------------------------------------------|
---------------------------------------------------------------------------------------|
---------------------------------------------------------------------------------------|
---5-----------------------------------------------------6/8--------------------8\6----|
---3-----------------------------------------------------------------------------------|
---3-----------------------------------1-11111-11111-11114/6--1-11111-11111-11116\4----|
  | let ring out over drums and keys|pm..................     ..................


----------------------------------------------------------------------------|
----------------------------------------------------------------------------|
---------------------8\7--5-----5-----5------8\7----------------------8\7---|
--------------------------5-----5-----5-------------6-----6-----6-----------|
---------------------6\5--3-33333-33333--33336\5----6-----6-----6-----6\5---|
---1-11111-11111-1111-------------------------------4-44444-44444-4444------|
 pm..................       ....  ....   ....         ....  ....  ....


-----------------------------------------------|
-----------------------------------------------|
---4-----4-----4-----4-----4----4----4----4----|
---4-----4-----4-----4-----4----4----4----4----|
---2-22222-22222-22222-22222----2----2----2----|
---------------------------2----2----2----2----|

keyboard break
-----------------------------------------------------------------------------------------|
-----------------------------------------------------------------------------------------|
---7-------------------------------------------------------------------------------------|
---7-------------------------------------------------------------------------6-6--6--6---|
---5-------------------------------------------------------------------------6-6--6--6---|
---5-------------------------------------------------------------------------4-4--4--4---|
   | let ring out over keys ................................................| last time|
[ Tab from: http://www.guitartabs.cc/tabs/d/dimmu_borgir/reptile_tab_ver_2.html ]
Riff 4a x2
---------------------------------------------------------------------------------------|
---------------------------------------------------------------------------------------|
---7--7-7-7-7---7-7-7-7---7-7-7--------------7--7-7-7-7---7-7-7-7---7-7-7--------------|
---7--7-7-7-7---7-7-7-7---7-7-7-4--4--4--4---7--7-7-7-7---7-7-7-7---7-7-7-6--6--6--6---|
---5--5-5-5-5---5-5-5-5---5-5-5-4--4--4--4---5--5-5-5-5---5-5-5-5---5-5-5-6--6--6--6---|
---5--5-5-5-5---5-5-5-5---5-5-5-2--2--2--2---5--5-5-5-5---5-5-5-5---5-5-5-4--4--4--4---|

Riff 4b x2 (same rythme as 4a but tremelo picked)
---5----------------------------9------------5----------------------------11-----------|
---6----------------------------10-----------6----------------------------12-----------|
---7----------------------------11-----------7----------------------------13-----------|
---7----------------------------11-----------7----------------------------13-----------|
---5----------------------------9------------5----------------------------11-----------|
---5----------------------------9------------5----------------------------11-----------|
 |tr...................................................................................|

Riff 4c x2 ( samr rythme as 4a but little bit different in places)

---------------------------------------------------------------------------------------|
---------------------------------------------------------------------------------------|
---7--7-7-7-7---7-7-7-7---7-7-7--------------7--7-7-7-7---7-7-7-7---7-7-7--------------|
---7--7-7-7-7---7-7-7-7---7-7-7--------------7--7-7-7-7---7-7-7-7---7-7-7--------------|
---5--5-5-5-5---5-5-5-5---5-5-5--------------5--5-5-5-5---5-5-5-5---5-5-5--------------|
---5--5-5-5-5---5-5-5-5---5-5-5-222-222-222--5--5-5-5-5---5-5-5-5---5-5-5-444-444-444--|
                              pm...........|                            pm...........|

Riff 2 x 4

Riff 5a x 2 (tremelo picked the whole way)
---7-------------------------3------------------------7----------------------11-----------------|
---8-------------------------4------------------------8----------------------12-----------------|
---9-------------------------5------------------------9----------------------13-----------------|
---9-------------------------5------------------------9----------------------13-----------------|
---7-------------------------3------------------------7----------------------11-----------------|
---7-------------------------3------------------------7----------------------11-----------------|
Tr..............................................................................................|

Riff 5b x 1
--------------------------------------------------------------------------------------------------|
--------------------------------------------------------------------------------------------------|
--------------------------------------------------------------------------------------------------|
--2-----------2-----------2-----------2-----------------------------------------------------------|
--2-----------2-----------2-----------2---------5-6-----------6-----------6-----------6-----------|
--0-0-0-0-0-0-0-0-0-0-0-0-0-0-0-0-0-0-0-0-0-0-0-7-8-8-8-8-8-8-8-8-8-8-8-8-8-8-8-8-8-8-8-8-8-8-8-8-|
    pm.......   .........   .........   .......     .......   .........   ...........   ..........

--------------------------------------------------------------------------------------------------|
--------------------------------------------------------------------------------------------------|
--------------------------------------------------------------------------------------------------|
--2-----------2-----------2-----------2-----------------------------------------------------------|
--2-----------2-----------2-----------2---------1-2-----------2-----------2-----------2-----------|
--0-0-0-0-0-0-0-0-0-0-0-0-0-0-0-0-0-0-0-0-0-0-0-3-4-4-4-4-4-4-4-4-4-4-4-4-4-4-4-4-4-4-4-4-4-4-4-4-|
    pm.......   .........   .........   .......     .......   .........   ...........   ..........

Riff 5c x 1 (same as 5b but picked abit different)

----------------------------------------------------------------------------------------------------|
----------------------------------------------------------------------------------------------------|
----------------------------------------------------------------------------------------------------|
--2-----------2-----------2-----------2-------------------------------------------------------------|
--2-----------2-----------2-----------2---------5-6-----------6-----------6-----------6-------------|
--0-0-0-0-00000-0-0-0-00000-0-0-0-00000-0-0-00007-8-8-8-8-88888-8-8-8-88888-8-8-8-88888-8-8-8-8888--|
    pm........  ..........  ..........  ........     .......    ..........  ..........  ...........

-------------------------------------------------------------------------------------|
-------------------------------------------------------------------------------------|
-------------------------------------------------------------------------------------|
-------2---------------------2-------------------------------------------------------|
-------2---------------------2-------------------2--------------------2--------------|
--0-0000---0-0000-0-0-0-0-0000---0-0000-0-0-4-4444---4-4444-4-4-4-44444---4-4444-4-4-|
pm.....    ..................    ................    .................    ..........


Keyboard stop
........................|
-------------------------------------|
-------------------------------------|
-------------------------------------|
--------------------------8-8-8--8---|
--------------------------6-6-6--6---|
--------------------------6-6-6--6---|

Riff 1a x 4

Riff 1b x 2

End.
Comments