Dimmu Borgir - Reptile Chords & Tabs

 

Reptile Chords & Tabs

Dimmu Borgir Chords & Tabs

Version: 1 Type: Tab 0 ratings
1 star 2 stars 3 stars 4 stars 5 stars
comments

Reptile Tab

   
DIMMU BORGIR - REPTILE

From the Album: Spiritual Black Dimensions


Tabbed by: Arto Osterman 24.9.1999 - 1.10.1999
E-mail: thornofsin@hotmail.com

Tuning: Tune down one whole step (D  G  C  F  A  D)


Marking:

Let ring: l
Palm mute: ...
mute: m
Hammer-on: h
Pull-off: p
Slide up: /
Slide down: \


Keyboard intro...


Fill 1:

|----------|
|----------|
|----------|
|----------|
|--33-3-3--|
|--11-1-1--|


Riff 1:

|------------------------------------|
|------------------------------------|
|------------------------------------|
|------------------------------------|
|-9999999999999999-3333333333333333--|
|-7777777777777777-1111111111111111--|


Riff 2:

|------------------------------------------
|------------------------------------------
|------------------------------------------
|------------------------------------------
|--------------999------99-1010-99-888888--
|--777777-1010-----1010--------------------


	------------------------------------------------|
	------------------------------------------------|
	------------------------------------------------|
	------------------------------------------------|
	--------------999------99-1010-99-121212121212--|
	--777777-1010-----1010--------------------------|


Riff 3:

|---------------------------|
|---------------------------|
|---------------------------|
|---------------------------|
|-9-999-9-999-9-999--3-333--|
|-7-777-7-777-7-777--1-111--|


Riff 4 (Chorus):

|-----------------------------------------
|-----------------------------------------
|-----------------------------------------
|-7--7-7-7--7--7-7-7----------------------
|-5--5-5-5--5--5-5-5--7--7-7-7--7--7-7-7--
|---------------------5--5-5-5--5--5-5-5--


---------------------------------------------------------|
---------------------------------------------------------|
---------------------------------------------------------|
-7--7-7-7--7--7-7-7-----------------------11-15-14---11--|
-5--5-5-5--5--5-5-5--7--7-7-7--7--7-7-7---9--13-12---9---|
---------------------5--5-5-5--5--5-5-5------------------|
						l


Fill 2:

|-----|
|-----|
|-----|
|--7--|
|--5--|
|-----|
   l


Keyboard...


Riff 5:

|----------------------------------------------------------------------
|----------------------------------------------------------------------
|----------------------------------------------------------------------
|----------------------------------------------------------------------
|-\5-5555-5-5--6-8--5-5555-5-5--8-6--5-5555-5-5--6-8--5-5555-5-5--8-6--
|-\3-3333-3-3--4-6--3-3333-3-3--6-4--3-3333-3-3--4-6--3-3333-3-3--6-4--

[ Tab from: http://www.guitartabs.cc/tabs/d/dimmu_borgir/reptile_tab.html ]
---------------------------------------------------------------------
---------------------------------------------------------------------
---------------------------------------------------------------------
-----------------------------------7-7777-7-7------------------------
-7-7777-7-7--8-7--7-7777-7-7--8-7--5-5555-5-5--8-7--8-8888-8-8--8-7--
-5-5555-5-5-------5-5555-5-5------------------------6-6666-6-6-------


  ------------------------------|
  ------------------------------|
  ------------------------------|
  -6-6666-6-6666-6-6666-6-6666--|
  -4-4444-4-4444-4-4444-4-4444--|
  ------------------------------|


Fill 2 again and then Riff 5 again...


Keyboard section.


Fill 3:

|---------|
|---------|
|---------|
|---------|
|--8-8-8--|
|--6-6-6--|


Riff 6:

|--------------------------------------------------------|
|--------------------------------------------------------|
|--------------------------------------------------------|
|--------------------------------------------------------|
|-222222222222222222--6-6-6--222222222222222222--8-8-8---|
|-000000000000000000--4-4-4--000000000000000000--6-6-6---|


Riff 6 Part II:

|-----------------------------------------------------------|
|-----------------------------------------------------------|
|-----------------------------------------------------------|
|-----------------------------------------------------------|
|-2-2222-2-2222-2-2222--6-6-6--2-2222-2-2222-2-2222--8-8-8--|
|-0-0000-0-0000-0-0000--4-4-4--0-0000-0-0000-0-0000--6-6-6--|


Riff 4 again


Riff 7:

|--------------------------------------------------------------------------|
|--------------------------------------------------------------------------|
|--------------------------------------------------------------------------|
|--------------------77777777777777777--------------------333333333333333--|
|-444444444444444444-55555555555555555-444444444444444444-111111111111111--|
|-222222222222222222-------------------222222222222222222------------------|


Riff 7 Part II:

|-------------------------------------------------------------------
|-------------------------------------------------------------------
|-------------------------------------------------------------------
|----------------------------------7-77777-7-77777-7-77777-7-77777--
|-4-44444-4-44444-4-44444-4-44444--5-55555-5-55555-5-55555-5-55555--
|-2-22222-2-22222-2-22222-2-22222-----------------------------------
    .....   .....   .....   .....    .....   .....   .....   .....


  -------------------------------------------------------------------|
  -------------------------------------------------------------------|
  -------------------------------------------------------------------|
  ----------------------------------3-33333-3-33333-3-33333-3-33333--|
  -4-44444-4-44444-4-44444-4-44444--1-11111-1-11111-1-11111-1-11111--|
  -2-22222-2-22222-2-22222-2-22222-----------------------------------|
     .....   .....   .....   .....    .....   .....   .....   .....


Fill 1 again

Riff 1 again

Riff 2 again


			>>> ANY CORRECTIONS ARE WELCOME <<<
Comments