Dimmu Borgir - Raabjorn Speiler Draugheimens Skodde Chords & Tabs

 

Raabjorn Speiler Draugheimens Skodde Chords & Tabs

Dimmu Borgir Chords & Tabs

Version: 1 Type: Bass Tab 0 ratings
1 star 2 stars 3 stars 4 stars 5 stars
comments

Raabjorn Speiler Draugheimens Skodde Bass Tab

From: "Kernous" 
Subject: TAB : Dimmu Borgir:Raabjorn Speiler Draugheimens Skodde Bass
Date: Thursday, September 13, 2001 9:59 AM

I AM ONLY PLACING THIS HERE BECAUSE A FRIEND OF MINE WHO IS JUST STARTING BASS WANTED ME TO TAB OUT THIS SONG ON BASS FOR HIM,SO I PUT IT HERE FOR OTHERS THAT MIGHT BE IN THE SAME CATAGORY.

Author/Artist: DIMMU BORGIR
Title: RAABJORN SPEILER DRAUGHEIMENS SKODDE
Album: ENTHRONE DARKNESS TRIUMPHANT
Transcribed by: KERNOUS
Email: KERNOUS@RELAPSECULT.COM

STANDARD TUNING.
LISTEN TO ALBUM FOR TIMING.

   riff1                 riff2 
-|---------------------|----------------------------------------
-|---------------------|----------------------------------------|
-|-7-------------------|-2--2--2-5-----------2--2--2-5----------|
-|-----------7---------|-----------3--3--33------------33-5-22--|
   l         l           l  l      l  l      l  l                             
[ Tab from: http://www.guitartabs.cc/tabs/d/dimmu_borgir/raabjorn_speiler_draugheimens_skodde_btab.html ]
    riff3                                riff4
-|-------------------------------------|----------------------|
-|-------------------------------------|----------------------|
-|-0-0-00-/8-88-8\7-7-0-0-00-8-7-5-7-7-|-0-------3-5-7--------|
-|-------------------------------------|----------------------|
                                         l           l                        

    riff5                                         riff6
-|-----------------------------------------------|-----|
-|-----------------------------------------------|-----|
-|-0-000-0-000-0-000-3-5-7-777-7-777-7-777-7-777-|-0-0-|
-|-----------------------------------------------|-----|
                                                                              

    riff7                                       riff8
-|-------------------------------------------|------------------------------|
-|-------------------------------------------|------------------------------|
-|-0-00--7-77--3-33-2-22-0-00-7-77-3-33------|---------0-3-----------3-0-2--|
-|--------------------------------------3-33-|-0---0---------0---0----------|
                                               l   l     l               l   
keyboard intro 
riff1 x 6
riff2 x 2 
riff3 x 2
guitar plays riff one time then..
add bass riff4 x 1
riff5 x 4
riff6 x 4
riff7 x 4
guitar plays riff one time then..
add bass riff4 x 1
riff5 x 4
riff6 x 4
riff7 x 4
riff8 x 14 fade....
Comments