Dimmu Borgir - Puritania Chords & Tabs

 

Puritania Chords & Tabs

Dimmu Borgir Chords & Tabs

Version: 2 Type: Tab 0 ratings
1 star 2 stars 3 stars 4 stars 5 stars
comments

Puritania Tab

   
Band Name-Dimmu Borgir
Song Name-puritania
Tuning-D,G,C,F,A,D
Kick @$$ song and easy but the riff is insane! Rate my tab!
P.M.=Palm Mute
S=stroke
U-up
D=Down
F-fast
[ Tab from: http://www.guitartabs.cc/tabs/d/dimmu_borgir/puritania_tab_ver_2.html ]
Main Riff
---------------------------------
---------------------------------
---------------------------------
-2-2-2-2-2--2-2--2--3--2-2--3----
-2-2-2-2-2--2-2--2--3--2-2--3----
-0-0-0-0-0--0-0--0--3--0-0--3----
  -P.M.-     -P.M.-   -P.M.- 
-S.U.D.F.-

2nd main riff
----------------------------------
----------------------------------
----------------------------------
-22--22--22--22--11--11--2-1------
-22--22--22--22--11--11--2-1------
-00--00--00--00--00--00--2-1------
 -------P.M.-----------

Well thats all there is to this song have fun Thank you!
Comments