Dimmu Borgir - Mourning Palace Chords & Tabs

 

Mourning Palace Chords & Tabs

Dimmu Borgir Chords & Tabs

Version: 1 Type: Tab 0 ratings
1 star 2 stars 3 stars 4 stars 5 stars
comments

Mourning Palace Tab

   
DIMMU BORGIR - MOURNING PALACE
From the Album ENTHRONED DARKNESS TRIUMPHANT
                        

Tuning: E(normal)

.  - palm mute                          ph    - pinched harmonic
/  - slide up to                        ah    - artificial harmonic
\  - slide down to                      hr    - harmonic
~  - vibrato                            p     - pull off
bf - full bend                          h     - hammer on
bh - bend half a step                   ()    - ghost note                         
r  - release bend                       pbh,f - prebend(h-half step, f-full)
t  - tap                                th    - tap harmonic
<  - accent chord or note

Sick and tired of seeing all the other bad versions out there.
This tablature was originally published in Chaos Theory magazine back in
1999 and was reviewed by many for accuracy. This is as close to an official 
tab as you'll get of this song.  Hopefully I made no typos transfering this 
over from the magazine.

                                    ___________   _____________________
  Keyboard                         | 1.          | 2.
||---------------------------------------------||-----------------------|
||--------2----------2----------2--------------||-----------------------|
||*-------2----------2----------2-------------*||-----------------------|
||*---4---4------4---4------4---4-------------*||-----------------------|
||-------(4)--------(4)--------(4)---2-5-4-7~--||---2--5--4--7~---------|
||--2---2------2---2------2---2----------------||-----------------------|
|
|  Guitar
||---------------------------------------------||-----------------------|
||---------------------------------------------||-----------------------|
||*-------------------------------------------*||-----------------------|
||*-------------------------------------------*||---4--7--6--9----------|
||---------------------------------------------||---2--5--4--7----------|
||---------------------------------------------||---2--5--4--7----------|
                                                    .  .  .  .

                                                ____________   ____________
  Guitar 1 and 2                               | 1,2,3,4,5    | 6.
||--<-------------<-------------<---------------------------||------------|
||--<------<------<------<------<------<--------------------||------------|
||*-2--22222--22222--22222--22222--22222--2222-------------*||------------|
||*-4--44444--44444--44444--44444--44444--4444--4--7--6--9-*||-4--7--6--9-|
||--4--44444--44444--44444--44444--44444--4444--2--5--4--7--||-2--5--4--7-|
||--2--22222--22222--22222--22222--22222--2222--2--5--4--7--||-2--5--4--7-|
                                                               .  .  .  

 Guitar 1 and 2
Riff A                                   end of Riff A
|-------------------------|-------------------------|
|-------------------------|-------------------------|
|-------------------------|-------------------------|
|-2/4--4-4-4-4-4--4-4-4-4-|-2/4--4-4-4-4-4--4-4-4-4-|
|-2/4--4-4-4-4-4--4-4-4-4-|-2/4--4-4-4-4-4--4-4-4-4-|
|-0/2--2-2-2-2-2--2-2-2-2-|-0/2--2-2-2-2-2--2-2-2-2-|
       . . . .    . . . .        . . . .    . . . .

GTR I and II
Riff B                               end of Riff B
|-----------------------|------------------------|
|-----------------------|------------------------|
|-----------------------|------------------------|
|-6----------9------6\--|-9----------9-----------|
|-7--7-7-7-7-7--7-7-6\--|-6----------6-----------|
|-----------------------|-7--7-7-7-7-7--7-7-7-7--|
     . . . .    . .          . . . .    . . . . 

Play Riff A again

Riff C                        end of Riff C
|--------------------|--------------------|
|--------------------|--------------------|
|--------------------|-----------11~------| GTR I
|-6--6-6-6-----6--6--|--------------------|
|-7--7-7-7--9--7--6--|-9------9-----------|
|--------------------|----7-7-------------|
|                         . .             |
|                                         |
|--------------------|--------------------|
|--------------------|--------------------|
|--------------------|--------------------| GTR II
|--------------------|--------------------|
|-7--7-7-7--9--7-----|--------------------|
|-----------------9--|-7--7-7-7--7--5--4--|
                       .  . . .  .  .  .

Play Riff A again

GTR I and II
Riff D                              end of Riff D
|-----------------------|------------------------|
|-----------------------|------------------------|
|-----------------------|------------------------|
|-6----------9------6\--|-9----------9-----------|
|-7--7-7-7-7-7--7-7-6\--|-9----------9-----------|
|-----------------------|-7--7-7-7-7-7--7-7-7-7--|
     . . . .    . .          . . . .    . . . . 

Play Riff A, Riff C, Riff A

GTR I & II
|-----------------|
|-----------------|
|-----------------|
|--4--7--6--9-----|
|--2--5--4--7-----|
|--2--5--4--7-----|

                                                ____________   ____________
  Guitar 1 and 2                               | 1,2,3        | 4.
||--<-------------<-------------<---------------------------||------------|
||--<------<------<------<------<------<--------------------||------------|
||*-2--22222--22222--22222--22222--22222--2222-------------*||------------|
||*-4--44444--44444--44444--44444--44444--4444--4--7--6--9-*||-4--7--6--9-|
||--4--44444--44444--44444--44444--44444--4444--2--5--4--7--||-2--5--4--7-|
||--2--22222--22222--22222--22222--22222--2222--2--5--4--7--||-2--5--4--7-|
                                                               .  .  .  

Play Riff A, Riff B, Riff A

|--------------------|---------------------|
|--------------------|---------------------|
|--------------------|-----------11~-------| GTR I
|--------------------|---------------------|
|-7--7-7-7--9--7--6--|-9------9------------|
|--------------------|----7-7--------------|
|                         . .              |
|                                          |
|--------------------|---------------------|
|--------------------|---------------------|
|--------------------|---------------------| GTR II
|--------------------|---------------------|
|-7--7-7-7--9--7-----|---------------------|
|-----------------9--|-7--7-7-7-7-7--5--4--|
                       .  . . . . .  .  .

Play Riff A, Riff D, Riff A

|--------------------|--------------------|
|--------------------|--------------------|
|--------------------|-----------11~------| GTR I
|--------------------|--------------------|
|-7--7-7-7--9--7--6--|-9------9-----------|
|--------------------|----7-7-------------|
|                         . .             |
|                                         |
|--------------------|--------------------|
|--------------------|--------------------|
|--------------------|--------------------| GTR II
|--------------------|--------------------|
|-7--7-7-7--9--7-----|--------------------|
|-----------------9--|-7--7-7-7--7--5--4--|
                       .  . . .  .  .  .

Tempo decreases

|--0--0-0-0-0------------|-0--0-0-0-0-------------|
|--8--8-8-8-8-*----------|-8--8-8-8-8-------------|
|--9--9-9-9-9(4--4-4-4-4)|-9--9-9-9-9(4--4-4-4-4)-| GTR I
|--9--9-9-9-9-2--2-2-2-2-|-9--9-9-9-9-2--2-2-2-2--|
|--7--7-7-7-7-2--2-2-2-2-|-7--7-7-7-7-2--2-2-2-2--|
|-------------0--0-0-0-0-|------------0--0-0-0-0--|
|                                                 |
|                                                 |
|--0--0-0-0-0-0--0-0-0-0-|-0--0-0-0-0-0--0-0-0-0--|
|--8--8-8-8-8-8--8-8-8-8-|-8--8-8-8-8-8--8-8-8-8--| GTR II
|--9--9-9-9-9-9--9-9-9-9-|-9--9-9-9-9-9--9-9-9-9--|
|--9--9-9-9-9-9--9-9-9-9-|-9--9-9-9-9-9--9-9-9-9--|
|--7--7-7-7-7-7--7-7-7-7-|-7--7-7-7-7-7--7-7-7-7--|
|------------------------|------------------------|
*ghost noted

                                               ___________________________
                                              | 1,2,3,4,5
 GTR I & II                                           *high F# ghost note
||-------------------------------------------|-0-0000------0-0000---------||
||-------------------------------------------|-8-8888------8-8888---------||
||*-5--5-5-5-5-4--4-4-4-4-7--9--7--5--5-2--2-|-9-99994-44449-99994-4444--*||
||*-7--7-7-7-7-7--7-7-7-7-9--9--9--7--7-4--4-|-9-99994-44449-99994-4444--*||
||--0--0-0-0-0-0--0-0-0-0-0--0--0--0--0-0--0-|-7-77772-22227-77772-2222---||
||-------------------------------------------|-------0-0000------0-0000---||


  ____________________
 | 6.                        
|--------------------------|
|--------------------------|
|-5-55554-44447-9-7-5-52-2-| GTR I & II
|-7-77777-77779-9-9-7-74-4-|
|-0-00000-00000-0-0-0-00-0-|
|--------------------------|


|----------------------------|--------------------------|
|----------------------------|--------------------------|
|----------------------------|--------------------------|
|------9-----8------9-----8--|------9-----X-------------|
|---10-----9-----10-----9----|---10-----9---3-3-3-5--6--|
|-0------0-----0------0------|-0------0-----3-3-3-5--6--|
| . .    . .   . .    . .      . .    . .               |
|                                                       |
|----------------------------|--------------------------|
|----------------------------|--------------------------|
|------4-----3------4-----3--|------4-------------------|
|----------------------------|------------X-------------|
|----------------------------|--------------3-3-3-5--6--|
|-0-3----0-2---0-3----0-2----|-0-3----0-2---3-3-3-5--6--|
  . .    . .   . .    . .      . .    . .


||----------------------------|--------------------------|
||----------------------------|--------------------------|
||*---------------------------|------------sph-----------| GTR I 
||*-----9-----8------9-----8--|------9-----7-------------|
||---10-----9-----10-----9----|---10-----9---3-3-3-6--5--|
||-0------0-----0------0------|-0------0-----3-3-3-6--5--|
|| . .    . .   . .    . .      . .    . .               |
||                                                       |
||----------------------------|--------------------------|
||----------------------------|--------------------------|
||*---------------------------|--------------------------| GTR II
||*------------------2-----1--|--------------------------|
||------3-----2---------------|------3-----2-3-3-3-6--5--|
||-0-3----0-2---0-3----0-2----|-0-3----0-2---3-3-3-6--5--|
   . .    . .   . .    . .      . .    . .
[ Tab from: http://www.guitartabs.cc/tabs/d/dimmu_borgir/mourning_palace_tab.html ]
|----------------------------|--------------------------||
|----------------------------|--------------------------||
|----------------------------|------------sph----------*|| GTR I
|------9-----8------9-----8--|------9-----7------------*||
|---10-----9-----10-----9----|---10-----9---3-3-3-5--6--||
|-0------0-----0------0------|-0------0-----3-3-3-5--6--||
| . .    . .   . .    . .      . .    . .               ||
|                                                       ||
|----------------------------|--------------------------||
|----------------------------|--------------------------||
|----------------------------|-------------------------*|| GTR II
|-------------------2-----1--|-------------------------*||
|------3-----2---------------|------3-----5-3-3-3-5--6--||
|-0-3----0-2---0-3----0-2----|-0-3----0-2---3-3-3-5--6--||
  . .    . .   . .    . .      . .    . .

||-----------------------------------|-----------------------------------||
||-----------------------------------|-----------------------------------||
||*----------------------------------|----------------------------------*||
||*-----9-----8------9---------------|------9-----8------9--------------*||
||---10-----9-----10-----9-3-3-3-5-6-|---10-----9-----10-----9-3-3-3-6-5-||
||-0------0-----0------0---3-3-3-5-6-|-0------0-----0------0---3-3-3-6-5-||
|| . .    . .   . .    . .             . .    . .   .  .   . .           ||
||                                                                       ||
||-----------------------------------|-----------------------------------||
||-----------------------------------|-----------------------------------||
||*----------------------------------|----------------------------------*||
||*----------------------------------|----------------------------------*||
||------2-----1------2-----3-3-3-5-6-|------2-----1------2-----3-3-3-6-5-||
||-0-3----0-2---0-3----0-2-3-3-3-5-6-|-0-3----0-2---0-3----0-2-3-3-3-6-5-||
   . .    . .   . .    . .             . .    . .   . .    . .


Repeat Four Times
||------------------------|-------|--------------------------|
||------------------------|----|--------------------------|
||*-----------------------|----|-2-----2-----2-----2------| GTR I
||*-2"--------------------|-------|-2-----2-----2-----2------|
||-------------2"---------|-------|-0-00000-00000-00000-0000-|
||------------------------|-------|--------------------------|
||  .          .                      ....  ....  ....  ....
||
||          high f# ghost note
||--0--0-0-0-0------------|-------|--------------------------|
||--8--8-8-8-8------------|----|--------------------------|
||*-9--9-9-9-9-4--4-4-4-4-|----|-5---5-5-5-5-4---4-4-4-4--| GTR II
||*-9--9-9-9-9-4--4-4-4-4-|-------|-7---7-7-7-7-7---7-7-7-7--|
||--7--7-7-7-7-2--2-2-2-2-|-------|-0---0-0-0-0-0---0-0-0-0--|
||-------------0--0-0-0-0-|-------|--------------------------|


|--------------------------||
|--------------------------||
|-2-----2-----2-----2-----*|| GTR I
|-2-----2-----2-----2-----*||
|-0-00000-00000-00000-0000-||
|--------------------------||
    ....  ....  ....  .... ||
                           ||
|--------------------------||
|--------------------------||
|-7---9---7---5---5-2---2-*|| GTR II
|-9---9---9---7---7-4---4-*||
|-0---0---0---0---0-0---0--||
|--------------------------||


|-------------|-------------|-------------|----------------|
|-------------|-------------|-------------|----------------|
|-------------|-------------|-------------|----------------| GTR I
|-----4"------|-5"--4"--2"--|-------------|---------5"-4"--|
|-2"------2"--|-------------|-----5"------|-----2"---------|
|-------------|-------------|-3"------3"--|-0"-------------|
|                                                          |
|                                                          |
|-------------|-------------|-------------|----------------|
|-------------|-------------|-------------|----------------|
|-------------|-------------|-------------|----------------| GTR II
|-4-----------|-------------|-------------|----------------|
|-2-----------|-------------|-------------|----------------|
|-------------|-------------|-------------|----------------|


|-------------|-------------|-------------|------------------|
|-------------|-------------|-------------|------------------|
|-------------|-------------|-------------|------------------| GTR I
|-----4"------|-5"--4"--2"--|-------------|---------5"-4"----|
|-2"------2"--|-------------|-----5"------|-----2"-----------|
|-------------|-------------|-3"------3"--|-0"---------------|
|                                                            |
|                                                            |
|-------------|-------------|-------------|------------------|
|-------------|-------------|-------------|------------------|
|-------------|-------------|-------------|------------------| GTR II
|-4---------3-|-4-----------|-------------|------------------|
|-2---------1-|-2-----------|-5-------4/5-|-2222222222222222-|
|-------------|-------------|-3-------2/3-|-0000000000000000-|


Repeat Six Times
||---------------|--------------|--------------|-----------------||
||---------------|--------------|--------------|-----------------||
||*--------------|--------------|--------------|----------------*|| GTR I
||*-----4"-------|-5"--4"--2"---|--------------|---------5"-4"--*||
||--2"------2"---|--------------|-----5"-------|-----2"----------||
||---------------|--------------|-3"------3"---|-0"--------------||
||                                                               ||
||                                                               ||
||---------------|--------------|--------------|-----------------||
||---------------|--------------|--------------|-----------------||
||*--------------|--------------|--------------|----------------*|| GTR II
||*-4---4-4--4-4-|-4---4-4--4-4-|--------------|----------------*||
||--2---2-2--2-2-|-2---2-2--2-2-|-5---5-5--4/5-|-2---2"--5"-4"---||
||---------------|--------------|-3---3-3--2/3-|-0---------------||


|----------------|----------------|-----------------|-----------------|
|----------------|----------------|-----------------|-----------------|
|----------------|------------4~--|-----------------|-----------------| GTR I
|----4---4-5-4-2-|----4---4-5-----|----4---4-5-4-22-|----5-4-2-4-5-4--|
|-2----2---------|-2----2---------|-2----2----------|-3---------------|
|----------------|----------------|-----------------|-----------------|
|    . .              . .              . .               . . . .      |
|                                                                     |
|----------------|----------------|-----------------|-----------------|
|----------------|----------------|-----------------|-----------------|
|----------------|----------------|-----------------|-----------------| GTR II
|----4---4-5-4-2-|----4---4-5-4~--|----4---4-5-4-22-|------------5-4--|
|-2----2---------|-2----2---------|-2----2----------|----5p4-2-4------|
|----------------|----------------|-----------------|-3---------------|
     . .              . .              . .                 . . . . .

|----------------|----------------|----------------|-----------------|
|----------------|----------------|----------------|-----------------|
|----------------|------------4~--|----------------|-----------------| GTR I
|----4---4-5-4-2-|----4---4-5-----|----4---4-5-4-2-|----5-4-2-4-5-4--|
|-2----2---------|-2----2---------|-2----2---------|-3---------------|
|----------------|----------------|----------------|-----------------|
|    . .              . .              . .              . . . .      |
|                                                                    |
|----------------|----------------|----------------|-----------------|
|----------------|----------------|----------------|-----------------|
|----------------|----------------|----------------|-----------------| GTR II
|----4---4-5-4-2-|----4---4-5-4~--|----4---4-5-4-2-|------------5-4--|
|-2----2---------|-2----2---------|-2----2---------|----5p4-0-2------|
|----------------|----------------|----------------|-3---------------|
     . .              . .              . .                . . . . .

|----------------|----------------|----------------|-----------------|
|----------------|------------ph--|----------------|----------*------|
|----------------|------------4~--|----------------|---------(4-2-2)-| GTR I
|----4---4-5-4-2-|----4---4-5-----|----4---4-5-4-2-|----5-4-2-4-5-4--|
|-2----2---------|-2----2---------|-2----2---------|-3---------------|
|----------------|----------------|----------------|-----------------|
|    . .              . .              . .              . . . .      |
|                                                                    |
|----------------|----------------|----------------|-----------------|
|----------------|----------------|----------------|-----------------|
|----------------|------------4~--|----------------|-----------------| GTR II
|----4---4-5-4-2-|----4---4-5-----|----4---4-5-4-2-|------------5-4--|
|-2----2---------|-2----2---------|-2----2---------|----5p4-0-2------|
|----------------|----------------|----------------|-3---------------|
     . .              . .              . .                . . . . .
*possibly string noise

|----------------|----------------|----------------|-----------------|
|----------------|------------ph--|----------------|-----------------|
|----------------|------------4~--|----------------|-----------------| GTR I
|----4---4-5-4-2-|----4---4-5-----|----4---4-5-4-2-|----5-4-2-4-5-4--|
|-2----2---------|-2----2---------|-2----2---------|-3---------------|
|----------------|----------------|----------------|-----------------|
|    . .              . .              . .              . . . .      |
|                                                                    |
|----------------|----------------|----------------|-----------------|
|----------------|----------------|----------------|-----------------|
|----------------|------------4~--|----------------|-----------------| GTR II
|----4---4-5-4-2-|----4---4-5-----|----4---4-5-4-2-|------------5-4--|
|-2----2---------|-2----2---------|-2----2---------|----5p4-0-2------|
|----------------|----------------|----------------|-3---------------|
     . .              . .              . .                . . . . .

Repeat Four Times
||---------------|--------------|--------------|-----------------||
||---------------|--------------|--------------|-----------------||
||*--------------|--------------|--------------|----------------*|| GTR I
||*-----4"-------|-5"--4"--2"---|--------------|---------5"-4"--*||
||--2"------2"---|--------------|-----5"-------|-----2"----------||
||---------------|--------------|-3"------3"---|-0"--------------||
||                                                               ||
||                                                               ||
||---------------|--------------|--------------|-----------------||
||---------------|--------------|--------------|-----------------||
||*--------------|--------------|--------------|----------------*|| GTR II
||*-4---4-4--4-4-|-4---4-4--4-4-|--------------|----------------*||
||--2---2-2--2-2-|-2---2-2--2-2-|-5---5-5--4/5-|-2---2"--5"-4"---||
||---------------|--------------|-3---3-3--2/3-|-0---------------||


|--------------------|
|--------------------|
|--------------------| GTR I & GTR II
|--------------------|
|--8--9-\------------|
|--6--7-\------------|
   .

Transcribed By: Richard Broadhead II (Displacer) (rich@dsrmusic.com)
Comments