Dimmu Borgir - Mourning Palace Chords & Tabs

 

Mourning Palace Chords & Tabs

Dimmu Borgir Chords & Tabs

Version: 1 Type: Bass Tab 0 ratings
1 star 2 stars 3 stars 4 stars 5 stars
comments

Mourning Palace Bass Tab

   
  Song title:  Mourning Palace (from the album "Enthroned Darkness 
Triumphant")
  Artist:      Dimmu Borgir
  played by:   Nagash


  transcribed and tabbed by  Bertinelli Riccardo


     Intro (riff A)  X6
  
G|-----------------------2----|---------------------2----|---------------------2---|
D|---------4------------------|---------4----------------|---------4---------------|
A|----------------------------|--------------------------|-------------------------|
E|---2-----------2------------|---2-----------2----------|---2-----------2---------|

  G|----------------------------------|
  D|---------------------------2------|
  A|---2-------5-------4--------------|
  E|----------------------------------|

    Riff B X2
  G|-----------------------------------------------------------------------|
  D|-----------------------------------------------------------------------|
  A|---------------------------------------------------2-2-2-2-2-2-2-2-2---|
  E|---2-2-2-2-2-2-2-2-2-2-2-2-2-2-2-0-0-0-0-0-0-0-0-0---------------------|

  G|-----------------------------------------------------------------------|
  D|---------------------------------------------------4-2-1-------4-~-----|
  A|---------------------------------------------------------2-0-2---------|
  E|---2-2-2-2-2-2-2-2-2-2-2-2-2-2-2-0-0-0-0-0-0-0-0-0---------------------|

   The second time you play riff B you have to finish it with this little 
outro

  G|-----------------------------|
  D|--------------------------2--|
  A|---2------4------5-----------|
  E|-----------------------------|


  G|--------------|---------------|
  D|---Riff-A-X3--|---Riff-B-X2---|
  A|--------------|---------------|
  E|--------------|---------------|
[ Tab from: http://www.guitartabs.cc/tabs/d/dimmu_borgir/mourning_palace_btab.html ]
               riff C X8
  
G|--------|-------------------------------------------------------------------------|
D|--------|-------------------------------------------------------------------------|
A|--------|----------0----2----5----2----0------------------------------2--0--0--0--|
E|---0~---|------5--------------------------3--0----0----2----0----0----------------|
          hear the cries...

     Riff D  X4
  
G|-----------------------------------------------------------------------------------|
D|-----------------------------------------------------------------------------------|
A|---------------2------------------2-------------3-------------5-------------7------|
E|---0---0---0-------0------0-------------0-------------0-------------0-----------0--|

     Riff E  X4
  G|----------------------------|
  D|----------------------------|
  A|--2--1--2--1--2--1----------|
  E|-------------------0--3--5--|

  G|---------------|------------------------------|
  D|---Riff C X4---|------------------------------|
  A|---------------|-----2------------------------|
  E|---------------|-------------0--3--------5----|

     Riff F X6
  G|-----------------------------------------------------|
  D|-----------------------------------------------------|
  A|---2-2-2-2-2-2-2-2-2-2-------------------------------|
  E|-----------------------3-3-3-3-3-3-3-3-0-0-0-0-0-0---|

     Riff G X2
  
G|---------------------------------------------------------------------------|
D|---------------------------------7-----------------------------------------|
A|------9--9--10--9--7---9--9--10--------9--9--10--9--7--------7--9--10--9---|
E|---7-----------------7--------------7-----------------8--10----------------|


  Now the things change,but not too much...
  You have to play the Riff F following the guitar till the end,but you can 
play it changing
  it as you wish ;)

  For any mistake or correction you may find (not so much I hope!!!) please 
write to me at my
  e-mail address:  mr_deaconray@hotmail.com
  Metal rules!!!


Comments