Dimmu Borgir - Master Of Disharmony Chords & Tabs

 

Master Of Disharmony Chords & Tabs

Dimmu Borgir Chords & Tabs

Version: 1 Type: Tab 0 ratings
1 star 2 stars 3 stars 4 stars 5 stars
comments

Master Of Disharmony Tab

"Master Of Disharmony" as performed by Dimmu Borgir 
 on their mini EP "Devil's Path"

downloaded from 
The Black Death... Black & Death Metal Page
http://tinpan.fortunecity.com/joolsholland/755/

Tabbed by Lord Úpir on 9 September 1998.

Both guitars in normal tuning (EADGBe)
PM--| |--|   Palm Mute (take a look at "my" Notation Legend for FAQ about TAB)


INTRO with weird drum and keyboard sounds, and at
(1:12) we hear a guitar...
e|-----------------------------------------|
B|-----------------------------------------|
G|-----------------------------------------|
D|---8---------------6--2------------------|
A|---8---------------6--2------------------|
E|---6---------------4--0------------------|

e|-----------------------------------------|
B|-----------------------------------------|
G|-----------------------------------------|
D|---8------------8-----2------------------|
A|---8---------------8--2------------------|
E|---6------------------0------------------|

e|-----------------------------------------|
B|-----------------------------------------|
G|-----------------------------------------|
D|---8---------------6--2------------------|
A|---8---------------6--2------------------|
E|---6---------------4--0------------------|

e|-----------------------------------------|
B|-----------------------------------------|
G|-----------------------------------------|
D|---8------------------2------------------|
A|---8------------------2------------------|
E|---6------------------0------------------|
(lyrics)Sons of Satan...  Gather for attack!

(1:34)Kinda quick. Use a very thin pick (I use 0.60mm) 
      and up- and downstroke the strings to do it the 
      Dimmu Borgir-way (saw 'em live).     4x
e|-------------------------------------------|
B|-------------------------------------------|
G|-------------------------------------------|
D|---888888888888888888222222222222222222----|
A|---888888888888888888222222222222222222----|
E|---666666666666666666000000000000000000----|
     (Shagrath (singer) screams a bit.)

(1:53)                                     4x
e|-------------------------------------------|
B|-------------------------------------------|
G|-------------------------------------------|
D|---8-88-8-88-8-8-8-8-2-22-2-22-2-2-2-2-----|
A|---8-88-8-88-8-8-8-8-2-22-2-22-2-2-2-2-----|
E|---6-66-6-66-6-6-6-6-0-00-0-00-0-0-0-0-----|
     Master of disharmony....

(2:11) Upper TAB (Guitar 1) is lead, lower TAB (Guitar 2) is rhythm       2x
e|-Guitar-1----------------------------|------------------------------------|
B|-------------------------------------|------------------------------------|
G|-------------------------------------|------------------------------------|
D|-9-10-12-15-14-----9-10-7--6---------|-9-10-12-15-14-----9-10-6--7--------|
A|------------------------------8--7---|------------------------------8--7--|
E|-------------------------------------|------------------------------------|
 |                                     |                                    |
e|-Guitar-2----------------------------|------------------------------------|
B|-------------------------------------|------------------------------------|
G|-------------------------------------|------------------------------------|
D|-7-------5-------7--------12-11-10---|-7-------5-------7--------10-12-11--|
A|-7-------5-------7--------12-11-10---|-7-------5-------7--------10-12-11--|
E|-5-------3-------5--------10--9--8---|-5-------3-------5---------8-10--9--|

(2:26)
e|-------------------------------------|------------------------------------|
B|-------------------------------------|------------------------------------|
G|-------------------------------------|------------------------------------|
D|-9-10-12-15-14-----9-10-7--6---------|-9-10-12-15-14-----9-10-6--7--------|
A|------------------------------8--7---|------------------------------8--7--|
E|-------------------------------------|------------------------------------|
 |                                     |                                    |
e|-Guitar-2-out------------------------|-Guitar-2-out-----------------------|
B|-------------------------------------|------------------------------------|
G|-------------------------------------|------------------------------------|
D|--------------------------12-11-10---|--------------------------10-12-11--|
A|--------------------------12-11-10---|--------------------------10-12-11--|
E|--------------------------10--9--8---|---------------------------8-10--9--|
[ Tab from: http://www.guitartabs.cc/tabs/d/dimmu_borgir/master_of_disharmony_tab.html ]
(2:33)
e|-------------------------------------|------------------------------------|
B|-------------------------------------|------------------------------------|
G|-------------------------------------|------------------------------------|
D|-9-10-12-15-14-----9-10-7--6---------|-9-10-12-15-14-----9-10-6--7--------|
A|------------------------------8--7---|------------------------------8--7--|
E|-------------------------------------|------------------------------------|
 |                                     |                                    |
e|-------------------------------------|------------------------------------|
B|-------------------------------------|------------------------------------|
G|-------------------------------------|------------------------------------|
D|-7-------5-------7--------12-11-10---|-7-------5-------7--------10-12-11--|
A|-7-------5-------7--------12-11-10---|-7-------5-------7--------10-12-11--|
E|-5-------3-------5--------10--9--8---|-5-------3-------5---------8-10--9--|

Guitar 1 plays at (2:56)              ??x
e|---------------------------------------|
B|---------------------------------------|
G|---------------------------------------|
D|--------7--------7--------7--------7---|
A|-----7--------7--------7--------7------|
E|--5--------5--------5--------5---------|
PM |----|   |----|   |----|   |----|

(4:20) Guitar 1
e|-------------------------------------------|
B|-------------------------------------------|
G|---9--8------------------------------------|
D|---------9--11-----------------------------|
A|-------------------------------------------|
E|-------------------------------------------|

(4:22)                                                                   4x
e|------------------------------------|------------------------------------|
B|------------------------------------|------------------------------------|
G|-----------------------------12-11--|-----------------------------12-11--|
D|-9---------9------9----------12-11--|-7---------7------7----------12-11--|
A|-9---------9------9-----------------|-7---------7------7-----------------|
E|-7--7-7-7--7--7-7-7--7-7-7-7--------|-5--5-5-5--5--5-5-5--5-5-5-5--------|
PM   |-----|   |----| |-------|           |-----|   |---|  |-------|
Keep playing this during the solo. I guess I'm not good enough to figure out the solo, 
but if someone does have it, please mail it to me.

on (5:27) again this cool black riff:
e|-------------------------------------|------------------------------------|
B|-------------------------------------|------------------------------------|
G|-------------------------------------|------------------------------------|
D|-9-10-12-15-14-----9-10-7--6---------|-9-10-12-15-14-----9-10-6--7--------|
A|------------------------------8--7---|------------------------------8--7--|
E|-------------------------------------|------------------------------------|
 |                                     |                                    |
e|-------------------------------------|------------------------------------|
B|-------------------------------------|------------------------------------|
G|-------------------------------------|------------------------------------|
D|-7-----------------5-----------------|-7-----------------5-------7--8--5--|
A|-7-----------------5-----------------|-7-----------------5-------7--8--5--|
E|-5-----------------3-----------------|-5-----------------3-------5--6--3--|

(5:33) Guitar 1 out                                                       2x
e|-------------------------------------|------------------------------------|
B|-------------------------------------|------------------------------------|
G|-------------------------------------|------------------------------------|
D|-7--7-7--5--5-5--7--7-7---12-11-10---|-7--7-7--5--5-5--7--7-7---10-12-11--|
A|-7--7-7--5--5-5--7--7-7---12-11-10---|-7--7-7--5--5-5--7--7-7---10-12-11--|
E|-5--5-5--3--3-3--5--5-5---10--9--8---|-5--5-5--3--3-3--5--5-5----8-10--9--|
 
(5:47)                                          2x (second time, look below)
e|-------------------------------------|------------------------------------|
B|-------------------------------------|------------------------------------|
G|-------------------------------------|------------------------------------|
D|-9-10-12-15-14-----9-10-7--6---------|-9-10-12-15-14-----9-10-6--7--------|
A|------------------------------8--7---|------------------------------8--7--|
E|-------------------------------------|------------------------------------|
 |                                     |                                    |
e|-------------------------------------|------------------------------------|
B|-------------------------------------|------------------------------------|
G|-------------------------------------|------------------------------------|
D|-7--7-7--5--5-5--7--7-7---12-11-10---|-7--7-7--5--5-5--7--7-7---10-12-11--|
A|-7--7-7--5--5-5--7--7-7---12-11-10---|-7--7-7--5--5-5--7--7-7---10-12-11--|
E|-5--5-5--3--3-3--5--5-5---10--9--8---|-5--5-5--3--3-3--5--5-5----8-10--9--|

and the final chords at (6:01). Instead of the last three chords above, play 
the second time:
e|-----------------|
B|-----------------|
G|-----------------|
D|--7--8--5--4-----|
A|--7--8--5--4-----|
E|--5--6--3--2-----|

Finish. That's it. Questions, corrections, death threats and 
marriage proposals? Mail 'em all to arjanbarman@hotmail.com
Comments