Dimmu Borgir - Kings Of The Carnival Creation Chords & Tabs

 

Kings Of The Carnival Creation Chords & Tabs

Dimmu Borgir Chords & Tabs

Version: 1 Type: Bass Tab 0 ratings
1 star 2 stars 3 stars 4 stars 5 stars
comments

Kings Of The Carnival Creation Bass Tab

INTRO/VERSE
G|-----------------------------------------------------------------------|
D|-----------------------------------------------------------------------|
A|---555-4-5-6-2-222-222-222-2-1-2-3-555-555-555-5-4-5-6-----------------|    X4
E|-----------------------------------------------------------------------|

BRIDGE
G|-------------------------------------------------------------------|
D|-------------------------------------------------------------------|
A|-22222222222222221414141414-12121212-10101010----------------------|
E|-------------------------------------------------------------------|

G|-------------------------------------------------------------------|
D|-------------------------------------------------------------------|
A|-55555555555555551616161616-14141414-12121212----------------------|       X1
E|-------------------------------------------------------------------|
NOTE: PLAY 5’S AND 2’S REALLY FAST

CHORUS
G|-------------------------------------|
D|-----3-------------------------------|
A|-------3-2-2-2-3---------------------|
E|-1~----------------------------------|

G|---------------------|
D|-------3-------------|
A|---------3-2-2-2-3---|
E|--1-1----------------|

G|---------------------------------------------|
D|-----3---------------------------------------|
A|------------3-----3------3-----3-4       X12-|
E|-1-1---1-1---1-1---1-1---1-1-----------------|

PART AFTER CHORUS
G|-----------------------------------------------|
D|--2-4-2---5-7-5---7-9-7---10-12-10h12----------|
A|-----------------------------------------------|
E|-----------------------------------------------|

G|-------------------------------------------------------------|
D|----------------0-0-0-0-0-0----------------------------------|
A|--2-2-2-2-2-2-------------------------------0-0-0-0-0-0------|
E|---------------------------------2-2-2-2-2-2-----------------|

GUITAR SOLO PLAY INTRO/VERSE

PLAY BRIDGE
[ Tab from: http://www.guitartabs.cc/tabs/d/dimmu_borgir/kings_of_the_carnival_creation_btab.html ]
2ND BRIDGE
G|----------------------------------------------------------------------------------------------------|
D|----------------------------------------------------------------------------------------------------|
A|--4-4-4-4-4-4-4-4-7-6-4---------------------------4-4-4-4-4-4-4-4-7-6-4-----------------------------|
E|-----------------------------4-4-4-4-4-4-4-4-7-6-4---------------------------4-4-4-4-4-4-4-4-7-6-4--|

G|---------------------------------------------------------------------------------|
D|---------------------------------------------------------------------------------|
A|---------------------------------------------------------------------------------|
E|---2-2-2-2-2-2-2-2-5-4-2---0-0-0-0-0-0-0-0---2-2-2-2-2-2-2-2-5-4-2---------------|

BEFORE VORTEX STARTS SINGING
G|---------|
D|-2-1-0---|
A|---------|
E|---------|

WHILE VORTEX IS SINGING
G|-----------------------------------------------------------------------------------------------------|
D|-----------------------------------------------------------------------------------------------------|
A|--4---4-4---4-4-6-7-6-4---------------------------4---4-4---4-4-6-7-6-4------------------------------|
E|-----------------------------4---4-4---4-4-6-7-6-4----------------------------4---4-4---4-4-6-7-6-4--|


G|----------------------------------------------------------------------------------------------2-1-0--|
D|-----------------------------------------------------------------------------------------------------|
A|-----------------------------------------------------------------------------------------------------|
E|-2---2-2---2-2-4-5-4-2-0---0-0---0-0-000-000-000--2---2-2---2-2-4-5-4-2-0---0-0---0-0----------------|


G|----------------------------|
D|----------------4-----------|
A|------------------4-4-4-3-4-|
E|--2~-------2-2--------------|

G|---------------------------------------------|
D|-----4---------------------------------------|
A|------------4------4-----4-----3-4-----------| X12
E|-2-2---2-2---2-2---2-2---2-2-----------------|

THEN PLAY PART AFTER CHORUS

OUTRO
G|----------------------------------|
D|---------5-5-5-5-5-5-5-5-5-5-5-5--|
A|3/--------------------------------|
E|----------------------------------|
Comments