Dimmu Borgir - Inn I Evighetens Morke Chords & Tabs

 

Inn I Evighetens Morke Chords & Tabs

Dimmu Borgir Chords & Tabs

Version: 1 Type: Bass Tab 0 ratings
1 star 2 stars 3 stars 4 stars 5 stars
comments

Inn I Evighetens Morke Bass Tab

standard tuning

G||-------------------|-------------------||-----------------------|
D||*------------------|------------------*||-----------------------|
A||*------------------|------------------*||-----------------------|
E||-------------------|-------------------||--------------0--0--0--|


                                                                           
|-----------------------------------|------------------------------------||
|*------------------3-3-3-3-3-3-3-3-|------------------3-3-3-3----------*||
|*--0-0-0-0-0-0-3-3-----------------|--0-0-0-0-0-0-3-3------------------*||
|-----------------------------------|--------------------------0--0--0---||


                                                                       3x
-----------------------------------|-----------------------------------||
*----------------------------------|----------------------------------*||
*--4-4-4-4-4-4-4-4-5-5-5-5-4-4-4-4-|--3-3-3-3-3-3-3-3-2-2-2-2-2-2-2-2-*||
-----------------------------------|-----------------------------------||

[ Tab from: http://www.guitartabs.cc/tabs/d/dimmu_borgir/inn_i_evighetens_morke_btab.html ]
                                                                          
-----------------------------------|------------------------------------||
*------------------3-3-3-3-3-3-3-3-|------------------3-3-3-3----------*||
*--0-0-0-0-0-0-3-3-----------------|--0-0-0-0-0-0-3-3------------------*||
-----------------------------------|--------------------------0--0--0---||


                                                                       3x
-----------------------------------|-----------------------------------||
*----------------------------------|----------------------------------*||
*--5-5-5-5-5-5-7-7-8-8-7-7-5-5-3-3-|--0-0-0-0-0-0-0-0-----------------*||
-----------------------------------|------------------1-1-1-1-1-1-1-1--||


                                    6x                        
------------------------------------||-----------------------|
*----------------------------------*||-----------------------|
*----------8-8-7-7-5-5-5-5---------*||--3-3-3-3-4------------|
---4-4-4-4-----------------5-5-5-5--||-----------------------|


                      
--------------------||
--------------------||
----------4/---x----||
--------------------||
Comments