Dimmu Borgir - Indoctrination Chords & Tabs

 

Indoctrination Chords & Tabs

Dimmu Borgir Chords & Tabs

Version: 1 Type: Bass Tab 0 ratings
1 star 2 stars 3 stars 4 stars 5 stars
comments

Indoctrination Bass Tab

Listen For Timing... this took forever to do. Love it, now. ;)

G||---------------------------|-----------------------------------||
D||*--------------------------|----------------------------------*||
A||---7----9--7--9--7--7--10--|--10--10--10--10--10--10--10--10---||
E||*--------------------------|----------------------------------*||
B||---------------------------|-----------------------------------||


                                                  7x                            
--------------------------|-----------------------||---------------------------|
*-------------------------|----------------------*||*--------------------------|
--------------------------|-----------------------||---7----9--7--9--7--7--10--|
*--0----2--0--2--0--2--3--|------2----0----3--2--*||*--------------------------|
--------------------------|-----------------------||---------------------------|


                                   3x                           
-----------------------------------||--------------------------|
----------------------------------*||*-------------------------|
--10--10--10--10--10--10--10--10---||--------------------------|
----------------------------------*||*--0----2--0--2--0--2--3--|
--------------------------
---------||--------------------------|


                       7x                                                  
-----------------------||-----------------------|-------------------------|
----------------------*||-----------------------|-------------------------|
-----------------------||--7-------6-------7----|-----6-------3--3--2--2--|
------2----0----3--2--*||-------0-------0-------|--0-------0--------------|
-----------------------||-----------------------|-------------------------|


                                                                             
-----------------------|---------------------------|------------------------|
-----------------------|---------------------------|------------------------|
--7-------6-------7----|-----6----6--6--6--10--10--|--10--10--7------6------|
-------0-------0-------|--0------------------------|------------------------|
-----------------------|---------------------------|------------------------|


                                                                     
---------------------|---------------------|------------------------|
---------------------|---------------------|------------------------|
--7------6------3----|--2----7------6------|--7---------------------|
---------------------|---------------------|---------1--1--1--5--5--|
---------------------|---------------------|------------------------|


                                                                           
------------------------|------------------------|------------------------|
------------------------|------------------------|------------------------|
--------7-------6-------|--7-------6-------3--3--|--2--2--7-------6-------|
--5--5-------0-------0--|-------0-------0--------|-------------0-------0--|
------------------------|------------------------|------------------------|


                                                                           
------------------------|------------------------|------------------------|
------------------------|------------------------|------------------------|
--7-------6-------------|--------7-------6-------|--7-------6-------3--3--|
-------0-------0--5--5--|--1--1-------0-------0--|-------0-------0--------|
------------------------|------------------------|------------------------|


                                                                           
------------------------|------------------------|------------------------|
------------------------|------------------------|------------------------|
--2--2--7-------6-------|--7-------6-------------|--------7-------6-------|
-------------0-------0--|-------0-------0--5--5--|--1--1-------0-------0--|
------------------------|------------------------|------------------------|


                                                                           
------------------------|------------------------|------------------------|
------------------------|------------------------|------------------------|
--7-------6-------3--3--|--2--2--7-------6-------|--7-------6-------------|
-------0-------0--------|-------------0-------0--|-------0-------0--5--5--|
------------------------|------------------------|------------------------|


                                                                           
------------------------|------------------------|------------------------|
------------------------|------------------------|------------------------|
--------7-------6-------|--7-------6-------3--3--|--2--2--7-------6-------|
--1--1-------0-------0--|-------0-------0--------|-------------0-------0--|
------------------------|------------------------|------------------------|


                                                                             
------------------------|--------||---------------------|-------------------|
------------------------|--------||*--------------------|-------------------|
--7-------6-------------|--------||---2-----------------|-------------------|
-------0-------0--5--5--|--1--1--||*---------------3----|----------6--------|
------------------------|--------||---------------------|-------------------|


                   7x                                                    
-------------------||-------------------------|-------------------------|
------------------*||*------------------------|-------------------------|
-------------------||---2----2--2--2--2-------|-------------------------|
------------------*||*-------------------3----|--3--3--3--3--6----6--6--|
-------------------||-------------------------|-------------------------|


                                                                             
-------------------------|------------------------|-------------------------|
-------------------------|------------------------|-------------------------|
-------------------------|--2----2--2--2--2-------|-------------------------|
--6--6--6----6--6--6--6--|-------------------3----|--3--3--3--3--6----6--6--|
-------------------------|------------------------|-------------------------|


                                       5x                         
--------------------------||-----|-----||----|-------------------|
-------------------------*||*----|----*||----|-------------------|
--------------------------||-----|-----||----|-------------------|
--6--6--6----6--6--6--6--*||*----|----*||----|--4----------------|
--------------------------||-----|-----||----|-------------------|


                                                                            
------------------|------------------|------------------|------------------|
------------------|------------------|------------------|------------------|
------------------|------------------|------------------|------------------|
------------------|------------------|------------------|------------------|
------------------|------------------|------------------|------------------|


                                                      
------------------|----------------------------------|
------------------|--7-7-7-7-7-7-------7-7-7-9-9-9-9-|
------------------|--------------7-7-7---------------|
------------------|----------------------------------|
------------------|----------------------------------|


                                                                      
----------------------------------|----------------------------------|
--9-9-------9-9-9-7-7-7-7-7-7-----|----7-7-7-9-9-9-9-9-9-------9-9-9-|
------7-7-7-------------------7-7-|--7-------------------7-7-7-------|
----------------------------------|----------------------------------|
----------------------------------|----------------------------------|


                                                   
--------------------------------------------------|
--14-14-14-14-14-14----------14-14-14-13-13-13-13-|
--------------------15-15-15----------------------|
--------------------------------------------------|
--------------------------------------------------|


                                                   
--------------------------------------------------|
--13-13----------13-13-13-14-14-14-14-14-14-------|
--------15-15-15----------------------------15-15-|
--------------------------------------------------|
--------------------------------------------------|


                                                   
--------------------------------------------------|
-----14-14-14-13-13-13-13-13-13----------13-13-13-|
--15----------------------------15-15-15----------|
--------------------------------------------------|
--------------------------------------------------|


                                                                      
----------------------------------|----------------------------------|
--6-6-6-6-6-6-------6-6-6-5-5-5-5-|--5-5-------5-5-5-6-6-6-6-6-6-----|
--------------7-7-7---------------|------7-7-7-------------------7-7-|
----------------------------------|----------------------------------|
----------------------------------|----------------------------------|


                                   
----------------------------------|
----6-6-6-7-7-7-7-7-7-------7-7-7-|
--7-------------------7-7-7-------|
----------------------------------|
----------------------------------|


                                                   
--------------------------------------------------|
--14-14-14-14-14-14----------14-14-14-13-13-13-13-|
--------------------15-15-15----------------------|
--------------------------------------------------|
--------------------------------------------------|


                                                   
--------------------------------------------------|
--13-13----------13-13-13-14-14-14-14-14-14-------|
--------15-15-15----------------------------15-15-|
--------------------------------------------------|
--------------------------------------------------|


                                                   
--------------------------------------------------|
-----14-14-14-13-13-13-13-13-13----------13-13-13-|
--15----------------------------15-15-15----------|
--------------------------------------------------|
--------------------------------------------------|


                                                                      
----------------------------------|----------------------------------|
--7-7-7-7-7-7-------7-7-7-9-9-9-9-|--9-9-------9-9-9-7-7-7-7-7-7-----|
--------------7-7-7---------------|------7-7-7-------------------7-7-|
----------------------------------|----------------------------------|
----------------------------------|----------------------------------|


                                   
----------------------------------|
----7-7-7-9-9-9-9-9-9-------9-9-9-|
--7-------------------7-7-7-------|
----------------------------------|
----------------------------------|


                                                   
--------------------------------------------------|
--14-14-14-14-14-14----------14-14-14-13-13-13-13-|
--------------------15-15-15----------------------|
--------------------------------------------------|
--------------------------------------------------|


                                                   
--------------------------------------------------|
--13-13----------13-13-13-14-14-14-14-14-14-------|
--------15-15-15----------------------------15-15-|
--------------------------------------------------|
--------------------------------------------------|


                                                   
--------------------------------------------------|
-----14-14-14-13-13-13-13-13-13----------13-13-13-|
--15----------------------------15-15-15----------|
--------------------------------------------------|
--------------------------------------------------|


                                                                      
----------------------------------|----------------------------------|
--6-6-6-6-6-6-------6-6-6-5-5-5-5-|--5-5-------5-5-5-6-6-6-6-6-6-----|
--------------7-7-7---------------|------7-7-7-------------------7-7-|
----------------------------------|----------------------------------|
----------------------------------|----------------------------------|


                                   
----------------------------------|
----6-6-6-7-7-7-7-7-7-------7-7-7-|
--7-------------------7-7-7-------|
----------------------------------|
----------------------------------|


                                                   
--------------------------------------------------|
--14-14-14-14-14-14----------14-14-14-13-13-13-13-|
--------------------15-15-15----------------------|
--------------------------------------------------|
--------------------------------------------------|


                                                   
--------------------------------------------------|
--13-13----------13-13-13-14-14-14-14-14-14-------|
--------15-15-15----------------------------15-15-|
--------------------------------------------------|
--------------------------------------------------|


                                                   
--------------------------------------------------|
-----14-14-14-13-13-13-13-13-13----------13-13-13-|
--15----------------------------15-15-15----------|
--------------------------------------------------|
--------------------------------------------------|

[ Tab from: http://www.guitartabs.cc/tabs/d/dimmu_borgir/indoctrination_btab.html ]
                                                                      
----------------------------------|----------------------------------|
--7-7-7-7-7-7-------7-7-7-9-9-9-9-|--9-9-------9-9-9-7-7-7-7-7-7-----|
--------------7-7-7---------------|------7-7-7-------------------7-7-|
----------------------------------|----------------------------------|
----------------------------------|----------------------------------|


                                   
----------------------------------|
----7-7-7-9-9-9-9-9-9-------9-9-9-|
--7-------------------7-7-7-------|
----------------------------------|
----------------------------------|


                                                   
--------------------------------------------------|
--14-14-14-14-14-14----------14-14-14-13-13-13-13-|
--------------------15-15-15----------------------|
--------------------------------------------------|
--------------------------------------------------|


                                                   
--------------------------------------------------|
--13-13----------13-13-13-14-14-14-14-14-14-------|
--------15-15-15----------------------------15-15-|
--------------------------------------------------|
--------------------------------------------------|


                                                   
--------------------------------------------------|
-----14-14-14-13-13-13-13-13-13----------13-13-13-|
--15----------------------------15-15-15----------|
--------------------------------------------------|
--------------------------------------------------|


                                                                      
----------------------------------|----------------------------------|
--6-6-6-6-6-6-------6-6-6-5-5-5-5-|--5-5-------5-5-5-6-6-6-6-6-6-----|
--------------7-7-7---------------|------7-7-7-------------------7-7-|
----------------------------------|----------------------------------|
----------------------------------|----------------------------------|


                                   
----------------------------------|
----6-6-6-7-7-7-7-7-7-------7-7-7-|
--7-------------------7-7-7-------|
----------------------------------|
----------------------------------|


                                                   
--------------------------------------------------|
--14-14-14-14-14-14----------14-14-14-13-13-13-13-|
--------------------15-15-15----------------------|
--------------------------------------------------|
--------------------------------------------------|


                                                   
--------------------------------------------------|
--13-13----------13-13-13-14-14-14-14-14-14-------|
--------15-15-15----------------------------15-15-|
--------------------------------------------------|
--------------------------------------------------|


                                                           
--------------------------------------------------|---|---|
-----14-14-14-13-13-13-13-13-13----------13-13-13-|---|---|
--15----------------------------15-15-15----------|---|---|
--------------------------------------------------|---|---|
--------------------------------------------------|---|---|


                                                           
|---------------------------|----------------------------||
|*--------------------------|---------------------------*||
|---------------------------|----------------------------||
|*--------------------------|---------------------------*||
|---3--2--3--5--6--5--6--8--|--9-------------------------||


                                                          
---------------------------|----------------------------||
*--------------------------|---------------------------*||
---------------------------|----------------------------||
*--------------------------|---------------------------*||
---3--2--3--5--6--5--6--8--|--9-------------------------||


                                                                      
----------------------------------|----------------------------------|
--7-7-7-7-7-7-------7-7-7-9-9-9-9-|--9-9-------9-9-9-7-7-7-7-7-7-----|
--------------7-7-7---------------|------7-7-7-------------------7-7-|
----------------------------------|----------------------------------|
----------------------------------|----------------------------------|


                                   
----------------------------------|
----7-7-7-9-9-9-9-9-9-------9-9-9-|
--7-------------------7-7-7-------|
----------------------------------|
----------------------------------|


                                                   
--------------------------------------------------|
--14-14-14-14-14-14----------14-14-14-13-13-13-13-|
--------------------15-15-15----------------------|
--------------------------------------------------|
--------------------------------------------------|


                                                   
--------------------------------------------------|
--13-13----------13-13-13-14-14-14-14-14-14-------|
--------15-15-15----------------------------15-15-|
--------------------------------------------------|
--------------------------------------------------|


                                                   
--------------------------------------------------|
-----14-14-14-13-13-13-13-13-13----------13-13-13-|
--15----------------------------15-15-15----------|
--------------------------------------------------|
--------------------------------------------------|


                                                                      
----------------------------------|----------------------------------|
--6-6-6-6-6-6-------6-6-6-5-5-5-5-|--5-5-------5-5-5-6-6-6-6-6-6-----|
--------------7-7-7---------------|------7-7-7-------------------7-7-|
----------------------------------|----------------------------------|
----------------------------------|----------------------------------|


                                   
----------------------------------|
----6-6-6-7-7-7-7-7-7-------7-7-7-|
--7-------------------7-7-7-------|
----------------------------------|
----------------------------------|


                                                   
--------------------------------------------------|
--14-14-14-14-14-14----------14-14-14-13-13-13-13-|
--------------------15-15-15----------------------|
--------------------------------------------------|
--------------------------------------------------|


                                                   
--------------------------------------------------|
--13-13----------13-13-13-14-14-14-14-14-14-------|
--------15-15-15----------------------------15-15-|
--------------------------------------------------|
--------------------------------------------------|


                                                   
--------------------------------------------------|
-----14-14-14-13-13-13-13-13-13----------13-13-13-|
--15----------------------------15-15-15----------|
--------------------------------------------------|
--------------------------------------------------|


                                                                      
----------------------------------|----------------------------------|
--7-7-7-7-7-7-------7-7-7-9-9-9-9-|--9-9-------9-9-9-7-7-7-7-7-7-----|
--------------7-7-7---------------|------7-7-7-------------------7-7-|
----------------------------------|----------------------------------|
----------------------------------|----------------------------------|


                                   
----------------------------------|
----7-7-7-9-9-9-9-9-9-------9-9-9-|
--7-------------------7-7-7-------|
----------------------------------|
----------------------------------|


                                                   
--------------------------------------------------|
--14-14-14-14-14-14----------14-14-14-13-13-13-13-|
--------------------15-15-15----------------------|
--------------------------------------------------|
--------------------------------------------------|


                                                   
--------------------------------------------------|
--13-13----------13-13-13-14-14-14-14-14-14-------|
--------15-15-15----------------------------15-15-|
--------------------------------------------------|
--------------------------------------------------|


                                                   
--------------------------------------------------|
-----14-14-14-13-13-13-13-13-13----------13-13-13-|
--15----------------------------15-15-15----------|
--------------------------------------------------|
--------------------------------------------------|


                                                                      
----------------------------------|----------------------------------|
--6-6-6-6-6-6-------6-6-6-5-5-5-5-|--5-5-------5-5-5-6-6-6-6-6-6-----|
--------------7-7-7---------------|------7-7-7-------------------7-7-|
----------------------------------|----------------------------------|
----------------------------------|----------------------------------|


                                   
----------------------------------|
----6-6-6-7-7-7-7-7-7-------7-7-7-|
--7-------------------7-7-7-------|
----------------------------------|
----------------------------------|


                                                   
--------------------------------------------------|
--14-14-14-14-14-14----------14-14-14-13-13-13-13-|
--------------------15-15-15----------------------|
--------------------------------------------------|
--------------------------------------------------|


                                                   
--------------------------------------------------|
--13-13----------13-13-13-14-14-14-14-14-14-------|
--------15-15-15----------------------------15-15-|
--------------------------------------------------|
--------------------------------------------------|


                                                                       
--------------------------------------------------|-------------------|
-----14-14-14-13-13-13-13-13-13----------13-13-13-|-------------------|
--15----------------------------15-15-15----------|-------------------|
--------------------------------------------------|--4----------------|
--------------------------------------------------|-------------------|


                                                         
------------------|------------------|------------------|
------------------|------------------|------------------|
------------------|------------------|------------------|
------------------|------------------|------------------|
------------------|------------------|------------------|


                                                                
------------------------|------------------|-------------------|
------------------------|------------------|-------------------|
------------------------|------------------|-------------------|
--4----4--4--4--4--3----|------------------|----------4--------|
------------------------|------------------|-------------------|


                                                                 
-------------------||------------------------|------------------|
-------------------||*-----------------------|------------------|
-------------------||------------------------|------------------|
----------5--------||*--4----4--4--4----3----|------------------|
-------------------||------------------------|------------------|


                                        3x                        
-------------------|--------------------||-----------------------|
-------------------|-------------------*||-----------------------|
-------------------|--------------------||-----------------------|
----------4--------|----------5--------*||--4----4--4--4----3----|
-------------------|--------------------||-----------------------|


                                                                 
--------------------|---------------------|---------------------|
--------------------|---------------------|---------------------|
--------------------|---------------------|---------------------|
----------4--3------|--------4--4--3------|------4--4--7--------|
--------------------|---------------------|---------------------|


                                                                               
---------------------|----------||-------------------------|------------------|
---------------------|----------||*------------------------|------------------|
---------------------|----------||-------------------------|------------------|
----------4--4--3----|----------||*--4----4--4--4--4--3----|------------------|
---------------------|----------||-------------------------|------------------|


                                                                   
-------------------|--------------------||------------------------|
-------------------|-------------------*||*-----------------------|
-------------------|--------------------||------------------------|
----------4--------|----------5--------*||*--4----4--4--4----3----|
-------------------|--------------------||------------------------|


                                                             
------------------|-------------------|--------------------||
------------------|-------------------|-------------------*||
------------------|-------------------|--------------------||
------------------|----------4--------|----------5--------*||
------------------|-------------------|--------------------||


                         
-----------------------||
-----------------------||
-----------------------||
--4----4--4--4--4------||
-----------------------||
Comments