Dimmu Borgir - In Deaths Embrace Chords & Tabs

 

In Deaths Embrace Chords & Tabs

Dimmu Borgir Chords & Tabs

Version: 1 Type: Tab 0 ratings
1 star 2 stars 3 stars 4 stars 5 stars
comments

In Deaths Embrace Tab

   
Dimmu Borgir - In Deaths Embrace
Album: Enthrone darkness triumphant
Tabbed by:David Clément

Riff A 
|--------------------------------------------| 
|--------------------------------------------| 
|--------------------------------------------| 
|---------4---------5-777777777777-555555----| 
|-2222222-2-2222222-2-555555555555-3333335-4-| 
|-0000000---0000000----------------------3-2-| 


Riff B 
|-------------------------------------------------------------------| 
|-------------------------------------------------------------------| 
|-------------------------------------------------------------------| 
|-------------------------------------------------------------------| 
|-7---7---7---7---7---7---7---7---3---3---3---3---3---3---3---3---3-| 
|-5-555-555-555-555-555-555-555-111-111-111-111-111-111-111-111-111-| 
    ..  ..  ..  ..  ..  ..  ..  ..  ..  ..  ..  ..  ..  ..  ..  .. 
[ Tab from: http://www.guitartabs.cc/tabs/d/dimmu_borgir/in_deaths_embrace_tab.html ]
Riff C 
guitar 1 
|------------------------------------| 
|------------------------------------| 
|------------------------------------| 
|-----------7-777--------------------| 
|-3-333-----5-555--7-77-5-7-77-5-----| 
|-1-111------------5-55-3-5-55-3-----| 
| 
| guitar 2 
|------------------------------------| 
|------------------------------------| 
|------------------------------------| 
|-----7578-7-7578--------------------| 
|-3--------5-------7-77-5-7-77-5-----| 
|-1----------------5-55-3-5-55-3-----| 


keyboard part 

Riff D 
|------------------| 
|------------------| 
|------------------| 
|------------------| 
|-7-------2---5----| 
|-5-------0---3----| 




Riff E 
|--------------------------| 
|--------------------------| 
|--------------------------| 
|--------------------------| 
|-7-----7-----2-----5------| 
|-5-55555-55550-00003-3333-| 
    ....  ....  ....  .... 

Then Riff B 

Solo riff: 
|---------------------------------|---| 
|---------------------------------|---| 
|---------------------------------|---| 
|---------------------------------|-2-| 
|----------------22222222222222---|-2-| 
|-00000000000000------------------|-0-|
  .............. .............. 

Then play Riff A till the end of the song 
An end With an E 
|---| 
|---| 
|---| 
|-2-| 
|-2-| 
|-0-|
Comments