Dimmu Borgir - Hybrid Stigmata The Apostasy Chords & Tabs

 

Hybrid Stigmata The Apostasy Chords & Tabs

Dimmu Borgir Chords & Tabs

Version: 1 Type: Tab 0 ratings
1 star 2 stars 3 stars 4 stars 5 stars
comments

Hybrid Stigmata The Apostasy Tab

   
              DIMMU BORGIR - HYBRID STIGMATA - THE APOSTASY
             From the Album PURITANICAL EUPHORIC MISANTHROPIA
                      Copyright 2001 Nuclear Blast
                         Version 1.0 - May 2001

Transcribed by: Marcus Päiviö

For Questions, Comments, Newest Version, or Corrections contact
 Marcus : at the_parasite24@hotmail.com

Check Out Death Warp, With More Transcriptions On It:
 http://www.sorrowsend.com/DeathWarp/




..  - palm mute          /  - slide up to
\  - slide down to      ~  - vibrato
h  - hammer on          b  - bend
p  - pull off            Suffixes for bend
                          ph - pinch harmonic
                           f - full bend    h - half bend
*  - see comment           r - release      t - tap bend
X  - percussion mute       ~ - vibrato bend
@  - slight palm mute     () - ghost note, sustained note

Tune Gtr to E (E,A,D,G,B,E)

Dimmu Borgir - Hybrid Stigmata - The Apostasy

Starts with Synth

Riff A.1
|---------------------------------------------------------|
|---------------------------------------------------------|
|---------------------------------------------------------|Gtrs I
|-5--5-----4---5--5-----8---5-5-----4--4-4-4--444-4--4444-|  & II
|-3--3-333-2---3--3-333-6---3-3-333-2--2-2-2--222-2--2222-|
|-3--3-----2---3--3-----6---3-3-----2--2-2-2--222-2--2222-|
       ...          ...         ...    . . .  ... .  ....

Repeat Riff A.1 (5 times)

Fill 1
|-----------|
|-----------|
|-----------|Gtrs I
|-4444-4444-|  & II
|-2222-2222-|
|-2222-2222-|
  .... ....

Riff A.2 w/wah wah
|-----------------3-3------------------4-4------------------4-4-|
|---3----4----6---4-4----3----4----6---5-5----3----4----6---5-5-|
|---5----5---------------5----5---------------5----5------------|Gtr
|---------------------------------------------------------------| I
|---------------------------------------------------------------|
|---------------------------------------------------------------|
|                                                               |
|---------------------------------------------------------------|
|---------------------------------------------------------------|
|---------------------------------------------------------------|Gtr
|-----------------5-5------------------6-6------------------5-5-| II
|---5----6----8----------5----6----8----------5----6----8-------|
|---------------------------------------------------------------|
|                                                               |
|---------------------------------------------------------------|
|---------------------------------------------------------------|
|---------------------------------------------------------------|Gtr
|-5555-5555-5444-4444--5555-5555-5888-8888--5555-5555-5444-4444-| III
|-3333-3333-3222-2222--3333-3333-3666-6666--3333-3333-3222-2222-|
|-3333-3333-3222-2222--3333-3333-3666-6666--3333-3333-3222-2222-|
  .... .... .... ....  .... .... .... ....  .... .... .... ....


(First time)         (2nd time)
|-------------------|----------------------A.h----|
|-------------------|--------------7----6---7~----|
|-4------7-6-7-6~---|-4------7-6-7----------------|Gtr
|-----4-------------|-----4-----------------------| I
|-------------------|-----------------------------|
|-------------------|-----------------------------|
|                   |                             |
|-------------------|-----------------------------|
|-------------------|-----------------------------|
|-------------------|----------------------A.h----|Gtr
|-------------------|--------------4----3---4~----| II
|-2------5-4-5-4----|-2------5-4-5----------------|
|-----2-------------|-----2-----------------------|
|                   |                             |
|-------------------|-----------------------------|
|-------------------|-----------------------------|
|-------------------|-----------------------------|Gtr
|-4-4-4--444-4-4444-|-4-4-4--444-4-4444-4444-4444-| III
|-2-2-2--222-2-2222-|-2-2-2--222-2-2222-2222-2222-|
|-2-2-2--222-2-2222-|-2-2-2--222-2-2222-2222-2222-|
  . . .  ... . ....   . . .  ... . .... .... ....

Riff B.1                                            (first time)
|---------------------------------------------------|-----|
|------------------------h-p-h----------------------|-----|
|------------h----h--1--0-1-0-1---------------------|-----|Gtrs I
|-------2---2-3--2-3--------------------2--------h--|--h--|  & II
|-0---3---3-----------------------0---3---3---3-2-3-|-2-3-|
|-------------------------------------------1-------|-----|

(2nd time)
|-----|
|-----|
|-----|Gtrs I
|-----|  & II
|-----|
|-4\--|
[ Tab from: http://www.guitartabs.cc/tabs/d/dimmu_borgir/hybrid_stigmata_the_apostasy_tab.html ]
Riff B.2                                    (first time)
|-------------------------------------------|-----------------|
|-------------------------------------------|-----------------|
|-----------------1"-0"-1"------------------|-----------------|Gtrs I
|--------2"----3"------------------2"-------|-----------------|  & II
|-0"--3"----3"--------------0"--3"----3"----|-3"--2"-3"-2"-3"-|
|----------------------------------------1"-|-----------------|

(2nd time)
|-----------|
|-----------|
|-----------|Gtrs I
|-----------|  & II
|-3"-2"-----|
|-------4\--|

Repeat Riff B.2 (1 time)

Riff C.1
|---------------------------------|
|---------------------------------|
|---------------------------------|Gtr
|-4-------h-p-h---3-------------3-| I
|-4------3-5-3-5--3-------------3-|
|-2-2222----------1-1-11-111-11-1-|
|   ....            . .. ... ..   |
|---------------------------------|
|---------------------------------|
|---------h-p-h-------------------|Gtr
|-4------4-5-4-5--3-------------3-| II
|-4---------------3-------------3-|
|-2-2222----------1-1-11-111-11-1-|
    ....            . .. ... ..

Repeat Riff C.1 (3 times)
Repeat Riff B.2 (1 time)

Riff D.1                                                  (first time)
|---------------------------------------------------------|----------------|
|---------------------------------------------------------|----------------|
|---------------------------------------------------------|----------------|Gtrs
|-9------9------9----9----9----10---9--5------5------5----|-5----5----5-8--|I&II
|-7-7777-7-7777-7-77-7-77-7-77-7-77-7--3-3333-3-3333-3-33-|-3-33-3-33-3-6--|
|---------------------------------------------------------|----------------|
    ....   ....   ..   ..   ..   ..      ....   ....   ..     ..   ..

(2nd time)
|------------|
|------------|
|------------|Gtrs I
|-6666-66-3--|  & II
|-6666-66-3--|
|-4444-44-1--|
  .... ..

Repeat Riff D.1 (2 times)

Riff E.1
|----------------------------------------------|
|----------------------------------------------|
|---------------------2-4----------------------|Gtrs I
|-2-2--------2-2------2-2--2---------------0-2-|  & II
|-2-2--------2-2-----------2--------2------0-2-|
|-0-0-1-1111-0-0-1-11------0-1-1111-0-0000-----|
      . ....     . ..        . ....   ....

Repeat Riff E.1 (1 time)

Riff E.2
|----------------------------------------------|
|----------------------------------------------|
|----------------------------------------------|Gtrs I
|-2-2--------2-2------1-2--2---------------0-2-|  & II
|-2-2--------2-2-----------2--------2------0-2-|
|-0-0-1-1111-0-0-1-11------0-1-1111-0-0000-----|
      . ....     . ..        . ....   ....

Repeat Riff E.2 (1 time)

Fill 2 *let ring
|-----|
|--*--|
|-5~--|Gtrs I
|-5~--|  & II
|-3~--|
|-3~--|

Fill 3
|-----|
|-----|
|-----|Gtrs I
|-8\--|  & II
|-8\--|
|-----|

Riff F.1 *let ring
|-----------------------------|
|-----------------------------|
|--*------*------*------*-----|Gtrs I
|-6------2------6------3------|  & II
|-6------2------6------3------|
|-4------0------4------1------|

Riff F.2
|---------------------------------------------|
|---------------------------------------------|
|---------------------------------------------|Gtrs I
|-6----------6----------5----------5----------|  & II
|-4-4-4-4444-4-4-4-4444-3-3-3-3333-3-3-3-3333-|
|-4----------4----------3----------3----------|
    . . ....   . . ....   . . ....   . . ....
Riff F.3 *let ring
|---------------|
|---------------|
|--*------*-----|Gtrs I
|-6------3------|  & II
|-6------3------|
|-4------1------|

Repeat Riff F.2 (1 time)
Repeat Riff F.3 (1 time)

Riff F.4                                           *let ring
|------------------------------------------------------|
|------------------------------------------------------|
|-------------------------------------------------*----|Gtrs I
|-2--2-------2--2-------2--2-------2------2------2-----|  & II
|-2--2--2-2--2--2--2-2--2--2--2-2--2-2-2--2-2-2--2-----|
|-0--0--0-0--0--0--0-0--0--0--0-0--0-0-0--0-0-0--0-----|
        . .        . .        . .    . .    . .

Repeat Riff F.4 (1 time)

Fill 4 *pick slide
|--------------------|
|----------*let ring-|
|---------5----------|Gtrs I
|--*------5----------|  & II
|-x\------3----------|
|-x\-----------------|

Repeat Riff F.2 (1 time)
Repeat Riff F.3 (1 time)
Repeat Riff F.2 (1 time)

Riff F.3 subst. *let ring
|---------------|
|---------------|
|--*------*-----|Gtrs I
|-6------7------|  & II
|-6------7------|
|-4------5------|

Repeat Riff D.1 (3 time)
Repeat Riff E.1 (4 times)
Repeat Fill 2 (1 time)

Riff A.1 subst.
|---------------------------------------------|
|---------------------------------------------|
|---------------------------------------------|Gtrs I
|-5--5-----8---5--5-----4--4-4-4--444-4--4444-|  & II
|-3--3-333-6---3--3-333-2--2-2-2--222-2--2222-|
|-3--3-----6---3--3-----2--2-2-2--222-2--2222-|
       ...          ...    . . .  ... .  ....

Repeat Riff A.1 (5 times)

Fill 5                  *let ring
|---------------------------------|
|---------------------*-----------|
|--------------------5------------|Gtrs I
|-4444-4444-4444-44--5------------|  & II
|-2222-2222-2222-22--3------------|
|-2222-2222-2222-22--3------------|
  .... .... .... ..

Check Out Death Warp, With More Transcriptions On It:
 http://www.sorrowsend.com/DeathWarp/
Comments