Dimmu Borgir - Hunnerkongen Chords & Tabs

 

Hunnerkongen Chords & Tabs

Dimmu Borgir Chords & Tabs

Version: 2 Type: Tab 0 ratings
1 star 2 stars 3 stars 4 stars 5 stars
comments

Hunnerkongen Tab

   
Song: Hunnerkongen Sorgsvarte Ferd Over Steppene
Band: Dimmu Borgir
Album: Godless Savage Garden
Tabbed by: Conor666Vyle
Tuning: (Standard E,A,D,G,B,E)

I've got the whole song done except the solo.

Riff 1:
|----------------------------------|
|----------------------------------|
|-2--------5--------7--------10910-|
|-2--------5--------7--------10910-|
|-0-000000-3-333333-5-555555-8-7-8-|  x6
|----------------------------------|
pm  ......   ......   ......

Riff 2:
|-------------------------------------------------------------------
|-------------------------------------------------------------------
|-4444444444444444444444444444444225555555555555555-----------------
|-44444444444444444444444444444442255555555555555555555555522222222-
|-22222222222222222222222222222220033333333333333335555555522222222-
|--------------------------------------------------3333333300000000-

|-------------------------------------------------------------------|
|-------------------------------------------------------------------|
|-44444444444444444444444444444442255555555555555557777777744444444-|
|-44444444444444444444444444444442255555555555555555555555522222222-|
|-2222222222222222222222222222222003333333333333333-----------------| x2
|-------------------------------------------------------------------|

Riff 1:
|----------------------------------|
|----------------------------------|
|-2--------5--------7--------10910-|
|-2--------5--------7--------10910-|
|-0-000000-3-333333-5-555555-8-7-8-|  x4
|----------------------------------|
pm  ......   ......   ......
[ Tab from: http://www.guitartabs.cc/tabs/d/dimmu_borgir/hunnerkongen_tab_ver_2.html ]
Riff 2:
|-------------------------------------------------------------------
|-------------------------------------------------------------------
|-4444444444444444444444444444444225555555555555555-----------------
|-44444444444444444444444444444442255555555555555555555555522222222-
|-22222222222222222222222222222220033333333333333335555555522222222-
|--------------------------------------------------3333333300000000-

|-------------------------------------------------------------------|
|-------------------------------------------------------------------|
|-44444444444444444444444444444442255555555555555557777777744444444-|
|-44444444444444444444444444444442255555555555555555555555522222222-|
|-2222222222222222222222222222222003333333333333333-----------------| x2
|-------------------------------------------------------------------|

Riff 3:
|-------------------------------------------------|
|-------------------------------------------------|
|-6-6-6-6-6-6-6-6-6-6-6-6-2-2-2-2-2-2-2-2-2-2-2-2-|
|-6-6-6-6-6-6-6-6-6-6-6-6-2-2-2-2-2-2-2-2-2-2-2-2-|
|-4-4-4-4-4-4-4-4-4-4-4-4-0-0-0-0-0-0-0-0-0-0-0-0-|  x8
|-------------------------------------------------|

Riff 4:
|----------------------------------------------------|
|----------------------------------------------------|
|-9-9-9-9-9-9-8-8-8-9-9-9-111111111111-10-9-7--------|
|-9-9-9-9-9-9-8-8-8-9-9-9-111111111111--------10-9-7-|
|-7-7-7-7-7-7-6-6-6-7-7-7-9-9-9-9-9-9----------------|  x4
|----------------------------------------------------|

Riff 5:
|-------------------------------------------------|
|-------------------------------------------------|
|-2-2-2-2-2-2-5-5-5-5-5-5-------------------------|
|-2-2-2-2-2-2-5-5-5-5-5-5-5-5-5-5-5-5-9-9-9-101010|
|-0-0-0-0-0-0-3-3-3-3-3-3-5-5-5-5-5-5-9-9-9-101010|  x4
|-------------------------3-3-3-3-3-3-7-7-7-8-8-8-|

Riff 4:
|----------------------------------------------------|
|----------------------------------------------------|
|-9-9-9-9-9-9-8-8-8-9-9-9-111111111111-10-9-7--------|
|-9-9-9-9-9-9-8-8-8-9-9-9-111111111111--------10-9-7-|
|-7-7-7-7-7-7-6-6-6-7-7-7-9-9-9-9-9-9----------------|  x8
|----------------------------------------------------|

End Riff:
|------------------------------------|
|------------------------------------|
|-9----------------------------------|
|-9-----(wait for hi-hat count)--3-2-|
|-7------------------------------3-2-|
|--------------------------------1-0-|
pm                               . .
Comments