Dimmu Borgir - Hunnerkongen Chords & Tabs

 

Hunnerkongen Chords & Tabs

Dimmu Borgir Chords & Tabs

Version: 1 Type: Bass Tab 0 ratings
1 star 2 stars 3 stars 4 stars 5 stars
comments

Hunnerkongen Bass Tab

G||------------------|------------------------|
D||------------------|------------------------|
A||------------------|--0----3----5----8-7-8--|
E||------------------|------------------------|


                                                                        
|----------------------------------|----------------------------------||
|*---------------------------------|---------------------------------*||
|*--0-0-0-0-3-3-3-3-5-5-5-5-8-7-8--|--0-0-0-0-3-3-3-3-5-5-5-5-8-7-8--*||
|----------------------------------|----------------------------------||


                                                         
---------------------------|---------------------------||
*--------------------------|--------------------------*||
*--2--2--2--2--2--2--2--0--|--3--3--3--3--------------*||
---------------------------|--------------3--3--0--0---||


                                                        
--------------------------||---------------------------|
--------------5--5--2--2--||*--------------------------|
--3--3--3--3--------------||*--2--2--2--2--2--2--2--0--|
--------------------------||---------------------------|


                                                        
---------------------------||--------------------------|
--------------------------*||--------------5--5--2--2--|
--3--3--3--3--------------*||--3--3--3--3--------------|
--------------3--3--0--0---||--------------------------|

[ Tab from: http://www.guitartabs.cc/tabs/d/dimmu_borgir/hunnerkongen_btab.html ]
                                                                        
|----------------------------------|----------------------------------||
|*---------------------------------|---------------------------------*||
|*--0-0-0-0-3-3-3-3-5-5-5-5-8-7-8--|--0-0-0-0-3-3-3-3-5-5-5-5-8-7-8--*||
|----------------------------------|----------------------------------||


                                                         
---------------------------|---------------------------||
*--------------------------|--------------------------*||
*--2--2--2--2--2--2--2--0--|--3--3--3--3--------------*||
---------------------------|--------------3--3--0--0---||


                                                        
--------------------------||---------------------------|
--------------5--5--2--2--||*--------------------------|
--3--3--3--3--------------||*--2--2--2--2--2--2--2--0--|
--------------------------||---------------------------|


                                                        
---------------------------||--------------------------|
--------------------------*||--------------5--5--2--2--|
--3--3--3--3--------------*||--3--3--3--3--------------|
--------------3--3--0--0---||--------------------------|


                                                                    3x
|---------------------------------|---------------------------------||
|*--------------------------------|--------------------------------*||
|*--4-4-4-4-4-4-4-5-5-5-5-4-4-4-4-|----------------7-7-7-7-8-8-8-8-*||
|---------------------------------|--5-5-5-5-5-5-5------------------||


                                                 3x                
-----------------------|-------------------------||---------------|
*----------------------|------------------------*||*--------------|
*--7--7-7--7-6--6-7--7-|--9--9-9--9-10--10-9--9-*||*--------------|
-----------------------|-------------------------||---------------|


               3x
---------------||
--------------*||
--------------*||
---------------||
Comments