Dimmu Borgir - For All Tid Chords & Tabs

 

For All Tid Chords & Tabs

Dimmu Borgir Chords & Tabs

Version: 1 Type: Bass Tab 0 ratings
1 star 2 stars 3 stars 4 stars 5 stars
comments

For All Tid Bass Tab

7x                                                        
G||-------|-------||------|------|------|------|------|------|------|------|
D||*------|------*||------|------|------|------|------|------|------|------|
A||-------|-------||------|------|------|------|------|------|------|------|
E||*------|------*||------|------|------|------|------|------|------|------|
B||-------|-------||------|------|------|------|------|------|------|------|


                                                            
------|------|------|------|------|----------------------------|
------|------|------|------|------|----------------------------|
------|------|------|------|------|--------------------0----3--|
------|------|------|------|------|----------------------------|
------|------|------|------|------|----------------------------|


                                                                              3x
-------------------|------------------||--------------------------------------||
--0----------------|------------------||*--0----0--0----0--------------------*||
-------------------|------------------||-------------------0--0--0--0--0--0---||
-------------------|------------------||*------------------------------------*||
-------------------|------------------||--------------------------------------||


                                                                          
------------------------------------|------------------------------------|
------------------------------------|------------------------------------|
---------------------------3--3--3--|---------------------------3--3--3--|
--0----0--0----0--------------------|--0----0--0----0--------------------|
------------------8--8--8-----------|------------------8--8--8-----------|


                                                                          
------------------------------------|------------------------------------|
------------------------------------|------------------------------------|
---------------------------3--3--3--|---------------------------3--3--3--|
--0----0--0----0--------------------|--0----0--0----0--------------------|
------------------8--8--8-----------|------------------8--8--8-----------|


                                                                          3x
|------------------------------------|------------------------------------||
|*----------3----3--0----0--3--2--3--|----------3----3--0----0--3--2--3--*||
|---0----0---------------------------|--0----0----------------------------||
|*-----------------------------------|-----------------------------------*||
|------------------------------------|------------------------------------||


                                                       
------|------||---------------------------------------|
------|------||*--------------------------------------|
------|------||---------------------------------------|
------|------||*--0--0--0--3--3--3--2--2--2--3--3--3--|
------|------||---------------------------------------|


                                                                              
--------------------------------------|--------------------------------------|
--------------------------------------|--------------------------------------|
--0--0--0-----------3--3--3--2--2--2--|--------------------------------------|
-----------3--3--3--------------------|--0--0--0--3--3--3--2--2--2--3--3--3--|
--------------------------------------|--------------------------------------|


                                                                             
---------------------------------------||-----------------------------------|
--------------------------------------*||*----------------------------------|
--2--2--2--0--0--0---------------------||---0----0--3----3--2----2--3----3--|
--------------------3--3--3--2--2--2--*||*----------------------------------|
---------------------------------------||-----------------------------------|


                                                                        
------------------------------------|----------------------------------|
------------------0--0--0--0--0--0--|----------------------------------|
------------------------------------|--0----0--3----3--2----2--3----3--|
--3----3--3----3--------------------|----------------------------------|
------------------------------------|----------------------------------|


                                                                         
-------------------------------------||---------------------------------|
--0----0--0----0--------------------*||*--------------------------------|
-------------------------------------||---0----0----0----0----0----0----|
------------------3--3--3--3--3--3--*||*--------------------------------|
-------------------------------------||---------------------------------|


                                                                     
---------------------------------||---------------------------------|
--------------------------------*||*--------------------------------|
---------------------------------||---------------------------------|
--0----0----0----0----0----0----*||*--1----1----1----1----1----1----|
---------------------------------||---------------------------------|

[ Tab from: http://www.guitartabs.cc/tabs/d/dimmu_borgir/for_all_tid_btab.html ]
                                                                             
---------------------------------------||-----------------------------------|
--------------------------------------*||*----------------------------------|
-----------------0--0--0---------------||---0----0--0----0--0----0--0----0--|
--0----0----0-------------------------*||*----------------------------------|
--------------------------12--12--12---||-----------------------------------|


                                                                       
-----------------------------------||---------------------------------|
----------------------------------*||*--------------------------------|
-----------------------------------||---------------------------------|
--0----0--0----0--0----0--0----0--*||*--1----1----1----1----1----1----|
-----------------------------------||---------------------------------|


                                                                             
---------------------------------------||-----------------------------------|
--------------------------------------*||----------3----3--0----0--3--2--3--|
-----------------0--0--0---------------||--0----0---------------------------|
--0----0----0-------------------------*||-----------------------------------|
--------------------------12--12--12---||-----------------------------------|


                                                                        
-----------------------------------|-----------------------------------|
----------3----3--0----0--3--2--3--|----------3----3--0----0--3--2--3--|
--0----0---------------------------|--0----0---------------------------|
-----------------------------------|-----------------------------------|
-----------------------------------|-----------------------------------|


                                                                        
-----------------------------------|-----------------------------------|
----------3----3--0----0--3--2--3--|----------3----3--0----0--3--2--3--|
--0----0---------------------------|--0----0---------------------------|
-----------------------------------|-----------------------------------|
-----------------------------------|-----------------------------------|


                                                                        
-----------------------------------|-----------------------------------|
----------3----3--0----0--3--2--3--|----------3----3--0----0--3--2--3--|
--0----0---------------------------|--0----0---------------------------|
-----------------------------------|-----------------------------------|
-----------------------------------|-----------------------------------|


                                                                             
-----------------------------------||---------------------------------------|
----------3----3--0----0--3--2--3--||*--------------------------------------|
--0----0---------------------------||---------------------------------------|
-----------------------------------||*--0--0--0--3--3--3--2--2--2--3--3--3--|
-----------------------------------||---------------------------------------|


                                                                              
--------------------------------------|--------------------------------------|
--------------------------------------|--------------------------------------|
--0--0--0-----------3--3--3--2--2--2--|--------------------------------------|
-----------3--3--3--------------------|--0--0--0--3--3--3--2--2--2--3--3--3--|
--------------------------------------|--------------------------------------|


                                                                            
---------------------------------------||----------------------------------|
--------------------------------------*||----------------------------------|
--2--2--2--0--0--0---------------------||--0----0--3----3--2----2--3----3--|
--------------------3--3--3--2--2--2--*||----------------------------------|
---------------------------------------||----------------------------------|


                                                                        
------------------------------------|----------------------------------|
------------------0--0--0--0--0--0--|----------------------------------|
------------------------------------|--0----0--3----3--2----2--3----3--|
--3----3--3----3--------------------|----------------------------------|
------------------------------------|----------------------------------|


                                                                        
------------------------------------|----------------------------------|
--0----0--0----0--------------------|----------------------------------|
------------------------------------|--0----0--3----3--2----2--3----3--|
------------------3--3--3--3--3--3--|----------------------------------|
------------------------------------|----------------------------------|


                                                                        
------------------------------------|----------------------------------|
------------------0--0--0--0--0--0--|----------------------------------|
------------------------------------|--0----0--3----3--2----2--3----3--|
--3----3--3----3--------------------|----------------------------------|
------------------------------------|----------------------------------|


                                                          10x
------------------------------------||-----|----|----|-----||
--0----0--0----0--------------------||*----|----|----|----*||
------------------------------------||-----|----|----|-----||
------------------3--3--3--3--3--3--||*----|----|----|----*||
------------------------------------||-----|----|----|-----||
Comments