Dimmu Borgir - Det Nye Riket Chords & Tabs

 

Det Nye Riket Chords & Tabs

Dimmu Borgir Chords & Tabs

Version: 1 Type: Tab 0 ratings
1 star 2 stars 3 stars 4 stars 5 stars
comments

Det Nye Riket Tab

   
Dimmu Borgir: Det Nye Riket (For all Tid)
Tabbed by HeXa

Normal tuning

After the strange sounds:

    D        C          Bb  A
|----------------------------------------------------------------------------|
|-----------------------5----------------------------------------------------|
|---7--------7--------7---7--------------------------------------------------|
|-7----7-5-7----7-5-7-------7------5-----------------------------------------|
|------------------------------5-7-------------------------------------------|
|----------------------------------------------------------------------------|
[ Tab from: http://www.guitartabs.cc/tabs/d/dimmu_borgir/det_nye_riket_tab.html ]
|----3--5-----3--5-----3--5---4--5--7--4-------------------------------------|
|-6--5--6--6--5--6--6--5--6---5--7--9--5-------------------------------------|
|-7--------7--------7--------------------------------------------------------|
|----------------------------------------------------------------------------|
|----------------------------------------------------------------------------|
|----------------------------------------------------------------------------|

The Piano Part

(Piano arranged for guitar)
|-------------5--------------------------------------------------------------|
|---6---6------5---5---6~--6--6--6---6--5----5-5-6---------------------------|
|--7---7---7--------7------7-7--7--------7-7---------------------------------|
|-7---7---7------7---7-----7---7---7------7----------------------------------|
|-0-------------------------------------0------------------------------------|
|--------------------------6-------------------------------------------------|
                           T            
T = Thump

Send all corrections to 
HeXa24@hotmail.com
Comments