Dimmu Borgir - Den Gjemte Sannhets Hersker Chords & Tabs

 

Den Gjemte Sannhets Hersker Chords & Tabs

Dimmu Borgir Chords & Tabs

Version: 1 Type: Tab 0 ratings
1 star 2 stars 3 stars 4 stars 5 stars
comments

Den Gjemte Sannhets Hersker Tab

-------------------------------------------------------------------------------
			     Den Gjemte Sannhets Hersker - Dimmu Borgir
					For all Tid [1994]	
-------------------------------------------------------------------------------
Tabbed by: UNKNOWNer
Email: andrej_paulus@net.hr

Tuning: Standard

Riff 1:
e|---------------------------------------------------------------------------|
B|---------------------------------------------------------------------------|
G|----4----5----4----5----4----5----4----5----2----5----2---5----2---5---2---|
D|---4----5----4----5----4----5----4----5----2----5----2---5----2---5---2---5|
A|--2----3----2----3----2----3----2----3----0----3----0---3----0---3---0---3-|
E|---------------------------------------------------------------------------|
  |-3x-|    -3x-|     |-3x-|    |-3x-|    |-3x-|   |-3x-|   |-3x-|    -3x-|

Riff 2:     
e|---------------------------------------------------------------------------|
B|---------------------------------------------------------------------------|
G|---------------------------------------------------------------------------|
D|---7777778-6666666---------------------------------------------------------|
A|---5555555-4444444---------------------------------------------------------|
E|---------------------------------------------------------------------------|

Riff 3:
e|---------------------------------------------------------------------------|
B|---------------------------------------------------------------------------|
G|---------------------------------------------------------------------------|
D|---------------------------------------------------------------------------|
A|-------888-777------------888-777-----------888-777-----------888-777------|
E|--5555----------4444-5555---------4444-5555---------4444-5555---------4444-|

Riff 4:
e|---------------------------------------------------------------------------|
B|---------------------------------------------------------------------------|
G|---------------------------------------------------------------------------|
D|---------------------------------------------------------------------------|
A|-------101010-999-----------101010-999-----------101010-999----------------|
E|--7777------------6666-7777------------6666-7777------------666------------|
[ Tab from: http://www.guitartabs.cc/tabs/d/dimmu_borgir/den_gjemte_sannhets_hersker_tab.html ]
e|---------------------------------------------------------------------------|
B|---------------------------------------------------------------------------|
G|---------------------------------------------------------------------------|
D|---------------------------------------------------------------------------|
A|-------101010-999----------------------------------------------------------|
E|--7777------------666------------------------------------------------------|

Riff 5:
e|---------------------------------------------------------------------------|
B|---------------------------------------------------------------------------|
G|--77777777--5555555--99999999-10991299-------------------------------------|
D|---------------------------------------------------------------------------|
A|---------------------------------------------------------------------------|
E|---------------------------------------------------------------------------|

Riff 6:
e|---------------------------------------------------------------------------|
B|---------------------------------------------------------------------------|
G|---------------------------------------------------------------------------|
D|--777877777-10-9-8-777877777-5-7-5-----------------------------------------|
A|---------------------------------------------------------------------------|
E|---------------------------------------------------------------------------|

Riff 7: 
e|---------------------------------------------------------------------------|
B|---------------------------------------------------------------------------|
G|---------------------------------------------------------------------------|
D|--777877777-5-7-5----------------------------------------------------------|
A|---------------------------------------------------------------------------|
E|---------------------------------------------------------------------------|

Riff 8:
e|---------------------------------------------------------------------------|
B|---------------------------------------------------------------------------|
G|---------------------------------------------------------------------------|
D|--7----5----3----2---------------------------------------------------------|
A|--7----5----3----2---------------------------------------------------------|
E|--5----3----1----0---------------------------------------------------------|

Solo:
e|---------------------------------------------------------------------------|
B|---------------------------------------------------------------------------|
G|---------------------7-7-9-10-9-7--10-9------------------------------------|
D|--7---7-9-10--9-10-9---------------------7-7-9-10-7-2--3-2-----------------|
A|-----------------------------------------------------------3-2-------------|
E|----------------------------------------------------------------5----------|

Song Construction:

Riff 1,
Riff 2,
Riff 3,
Riff 4,
Riff 5,
Riff 6,
Riff 7,
Riff 6,
Riff 8,
Riff 8, Solo.




===============================================================================
Comments