Dimmu Borgir - Burn In Hell Chords & Tabs

 

Burn In Hell Chords & Tabs

Dimmu Borgir Chords & Tabs

Version: 3 Type: Tab 0 ratings
1 star 2 stars 3 stars 4 stars 5 stars
comments

Burn In Hell Tab

tabbed by: jokke - siindre@hotmail.com                             
                          
   intro:
 
    gtr:1                                
                                    x4
 |------|-----------------------------|           
 |------|*---------------------------*|
 |------|-----------------------------|
 |------|--2---2-2--0-3---3-5---5-4---|
 |------|*-2---2-2--0-3---3-5---5-4--*|
 |------|--0---0-0----3---3-5---3-2---| 
 
(when the first guitar has playd the intro riff twice, 
 the second guitar begin playing the tab this tab)
[ Tab from: http://www.guitartabs.cc/tabs/d/dimmu_borgir/burn_in_hell_tab_ver_3.html ]
    gtr:2
 |------------------------------------12p10-12-15p12-15~--|
 |--12-------12-10-12-13-10-13-15~~-----------------------|
 |-12--12~------------------------------------------------|
 |--------------------------------------------------------|
 |--------------------------------------------------------|
 |--------------------------------------------------------|
 
 |--15-14-15-17-15-17-19~----15-14--12--|
 |--------------------------------------|
 |--------------------------------------|
 |--------------------------------------|
 |--------------------------------------|
 |--------------------------------------|


 gtr:1
                               x3
 |-------------------------------|
 |*-----------------------------*|
 |-------------------------------|
 |--2---2-2------2---2-2----5-4--|
 |*-2---2-2------2---2-2----5-4-*|
 |--0---0-0------0---0-0----3-2--|
 | 
 |
 |---------------------------------------|
 |---------------------------------------|
 |---------------------------------------|
 |--2---2-2------2---2-2----2-4-5---5-5--|
 |--2---2-2------2---2-2----2-4-5---5-5--|
 |--0---0-0------0---0-0----0-2-3---3-3--|
 | 
 |                         x2
 |--------------------------|
 |*------------------------*|
 |--------------------------|
 |--2---2-2----2-4-5---5-5--|
 |*-2---2-2----2-4-5---5-5-*|
 |--0---0-0----0-2-3---3-3--|
 |
 |-----------------------------|
 |-----------------------------|
 |-----------------------------|
 |--2---2-2---2-2-4-5---4---3--|
 |--2---2-2---2-2-4-5---4---3--|
 |--0---0-0---0-0-2-3---2---1--|


  thats the intro. god luck
Comments