Dimmu Borgir - Burn In Hell Chords & Tabs

 

Burn In Hell Chords & Tabs

Dimmu Borgir Chords & Tabs

Version: 1 Type: Tab 0 ratings
1 star 2 stars 3 stars 4 stars 5 stars
comments

Burn In Hell Tab

Band:DIMMU BORGIR    
Song:Burn in Hell      
Album:Puritanical Euphoric Misanthropia
[INTRO:]

GUITAR 1:
e|--------------|---------------------|-------|
B|--------------|---------------------|-------|
G|--------------|----7-5----5-7-------|-------|
D|---2--2-2-----|----7-5----5-7-------|--5-4--|
A|---2--2-2-----|----5-3----3-5-------|--5-4--|
E|---0--0-0-----|---------------------|--3-2--|

|--------------|---------------------|-------|
|--------------|---------------------|-------|
|--------------|---------------------|-------|
|---2--2-2-----|----7-5----5-7-------|--5-4--|
|---2--2-2-----|----7-5----5-7-------|--5-4--|
|---0--0-0-----|----5-3----3-5-------|--3-2--|

|------------|--------------------|-------|
|------------|--------------------|-------|
|------------|----7-5----5-7------|-------|
|---2--2-2---|----7-5----5-7------|--5-4--|
|---2--2-2---|----5-3----3-5------|--5-4--|
|---0--0-0---|--------------------|--3-2--|

|--------------|---------------------|-------|
|--------------|---------------------|-------|
|--------------|---------------------|-------|
|---2--2-2-----|----7-5----5-7-------|--5-4--|
|---2--2-2-----|----7-5----5-7-------|--5-4--|
|---0--0-0-----|----5-3----3-5-------|--3-2--|
|GUITAR 2:				     
|--------------|---------------------|-------|
|--------------|---------------------|----12-|
|--------------|---------------------|-12----|
|--------------|---------------------|-------|
|--------------|---------------------|-------|
|--------------|---------------------|-------|
			
|------------|--------------------|-9h10p9|
|------------|-10--10-12b-12-10---|-------|
|-8--12-11-12|---12---------------|-------|
|------------|--------------------|-------|
|------------|--------------------|-------|
|------------|--------------------|-------|
				     |
|14h15p14-15-14|15-17-15-17-19b-19-17|-15-14-|
|--------------|---------------------|-------|
|--------------|---------------------|-------|
|--------------|---------------------|-------|
|--------------|---------------------|-------|
|--------------|---------------------|-------|
							    			
|---12-(let ring)---------|-------|------------|------------|-------|
|------------|------------|-------|------------|------------|-------|
|------------|------------|-------|------------|------------|-------|
|------------|------------|-------|------------|------------|-------|
|------------|------------|-------|------------|------------|-------|
|------------|------------|-------|------------|------------|-------|








GUITAR 1:
|------------|------------|-------|------------|------------|-------|
|------------|------------|-------|------------|------------|-------|
|------------|------------|-------|------------|------------|-------|
|---2--2-2---|---2--2-2---|--5-4--|---2--2-2---|---2--2-2---|--5-4--|
|---2--2-2---|---2--2-2---|--5-4--|---2--2-2---|---2--2-2---|--5-4--|
|---0--0-0---|---0--0-0---|--3-2--|---0--0-0---|---0--0-0---|--3-2--|

|------------|------------|-------|------------|------------|-------|
|------------|------------|-------|------------|------------|-------|
|------------|------------|-------|------------|------------|-------|
|---2--2-2---|---2--2-2---|--5-4--|---2--2-2---|---2--2-2---|--2-4--|
|---2--2-2---|---2--2-2---|--5-4--|---2--2-2---|---2--2-2---|--2-4--|
|---0--0-0---|---0--0-0---|--3-2--|---0--0-0---|---0--0-0---|--0-2--|
(Welcome to the abandoned land...   Come on in child take my hand...)
[ Tab from: http://www.guitartabs.cc/tabs/d/dimmu_borgir/burn_in_hell_tab.html ]
|------------|------------|-------|------------|------------|-------|
|------------|------------|-------|------------|------------|-------|
|------------|------------|-------|------------|------------|-------|
|---5--5-5---|---2--2-2---|--2-4--|---5--5-5---|---2--2-2---|--2-4--|
|---5--5-5---|---2--2-2---|--2-4--|---5--5-5---|---2--2-2---|--2-4--|
|---3--3-3---|---0--0-0---|--0-2--|---3--3-3---|---0--0-0---|--0-2--|

|------------|------------|-------|---------------------------------|
|------------|------------|-------|---------------------------------|
|------------|------------|-------|---------------------------------|
|---5--5-5---|---2--2-2---|--2-4--|-------5---------4---------3-----|
|---5--5-5---|---2--2-2---|--2-4--|-------5---------4---------3-----|
|---3--3-3---|---0--0-0---|--0-2--|-------3---------2---------1-----|
PRE-VERSE:				  Down...    down...   down...
|---------------|---------------|----------------|-----------------|
|---------------|---------------|----------------|-----------------|
|-4-------------|-5-------------|--4-------------|--4--------------|
|-4--2-2-2--2-2-|-5--2-2-2--2-2-|--4--2-2-2--2-2-|--4--2-2-2--2-2--|
|-2--2-2-2--2-2-|-3--2-2-2--2-2-|--2--2-2-2--2-2-|--2--2-2-2--2-2--|
|----0-0-0--0-0-|----0-0-0--0-0-|-----0-0-0--0-0-|-----0-0-0--0-0--|
[VERSE:]
|---------------|---------------|----------------|----------------|
|---------------|---------------|----------------|----------------|
|---------------|---------------|--4-------------|-5--------------|
|-2-------------|--5-4---4-5-4--|--4--2-2-2--2-2-|-5--2-2-2--2-2--|
|-2--(let ring)-|--5-4---4-5-4--|--2--2-2-2--2-2-|-3--2-2-2--2-2--|
|-0-------------|--3-2-0-2-3-2--|-----0-0-0--0-0-|----0-0-0--0-0--|

|---------------|---------------|----------------|----------------|
|---------------|---------------|----------------|----------------|
|---------------|---------------|--4-------------|-5--------------|
|-2-------------|-9-7-5--9-7-5--|--4--2-2-2--2-2-|-5--2-2-2--2-2--|
|-2--(let ring)-|-9-7-5--9-7-5--|--2--2-2-2--2-2-|-3--2-2-2--2-2--|
|-0-------------|-7-5-3--7-5-3--|-----0-0-0--0-0-|----0-0-0--0-0--|

|--------------|--------------|--------------------|-------------------|
|--------------|--------------|--------------------|-------------------|
|--------------|--------------|--------------------|-------------------|
|-5------------|--5-5-5-5-5-5-|-------2------------|-------2-----------|
|-5-(let ring)-|--5-5-5-5-5-5-|-x-x-2--------------|-x-x-2-------------|
|-3------------|--3-3-3-3-3-3-|---------0--0-0-0-0-|--------0--0-0-0-0-|




|--------------|--------------|---------------------------------------|
|--------------|--------------|-5-4-2-4-2------2----------------------|
|-5------------|--5-5-5-5-5-5-|------------5-4---5-4-2-5-4------------|
|-5-(let ring)-|--5-5-5-5-5-5-|----------------------------4-2--------|
|-3------------|--3-3-3-3-3-3-|---------------------------------------|

|----------------|
|----------------|
|-5-4-2----------|
|--------5-4-2---|
|--------------2-|
|----------------|
[CHORUS:]
|---------------|---------------|----------------|--------------|
|---------------|---------------|----------------|--------------| don't
|-4-------------|-5-------------|--4-------------|--------------| play
|-4--2-2-2--2-2-|-5--2-2-2--2-2-|--4--2-2-2--2-2-|--4-------2---|>first
|-2--2-2-2--2-2-|-3--2-2-2--2-2-|--2--2-2-2--2-2-|--4-------2---| time
|----0-0-0--0-0-|----0-0-0--0-0-|-----0-0-0--0-0-|--2-------0---|

|---------------|---------------|----------------|--------------|
|---------------|---------------|----------------|--------------|
|-4-------------|-5-------------|--4-------------|----------4---|
|-4--2-2-2--2-2-|-5--2-2-2--2-2-|--4--2-2-2--2-2-|--4-------4---|
|-2--2-2-2--2-2-|-3--2-2-2--2-2-|--2--2-2-2--2-2-|--4-------2---|
|----0-0-0--0-0-|----0-0-0--0-0-|-----0-0-0--0-0-|--2-----------|

(repeat verse and chorus)
[SOLO (played over verse and chorus)]
[CHORUS 2 TIMES WITHOUT CHORDS]
[CHORUS 2 TIMES AND FADE OUT]

Comments