Dimmu Borgir - Alt Lys Er Svunnet Hen Chords & Tabs

 

Alt Lys Er Svunnet Hen Chords & Tabs

Dimmu Borgir Chords & Tabs

Version: 1 Type: Tab 0 ratings
1 star 2 stars 3 stars 4 stars 5 stars
comments

Alt Lys Er Svunnet Hen Tab

-------------------------------------------------------------------------------
			     Alt Lys Er Svunnet Hen - Dimmu Borgir
					Stormblast [1996]
-------------------------------------------------------------------------------
Tabbed by: UNKNOWNer
Email: andrej_paulus@net.hr

Tuning: Standard

Riff 1:
e|---------------------------------------------------------------------------|
B|---------------------------------------------------------------------------|
G|---------------------------------------------------------------------------|
D|--77777777--10-10-10-10-10-10-10-10----------------------------------------|
A|--77777777--8--8--8--8--8--8--8--8-----------------------------------------|
E|--55555555-----------------------------------------------------------------|

Riff 2:
e|---------------------------------------------------------------------------|
B|---------------------------------------------------------------------------|
G|--------------------------------2-22---------------------------------------|
D|--7-77------5-55----------------2-22---------------------------------------|
A|--7-77--9-7-5-55-----2-22---3-2-0-00---------------------------------------|
E|--5-55--7-5-3-33-----0-00--------------------------------------------------|

Riff 3:
e|---------------------------------------------------------------------------|
B|---------------------------------------------------------------------------|
G|---------------------------------------------------------------------------|
D|---------9-7--10.-9.-------------------------------------------------------|
A|--7--10--------------------------------------------------------------------|
E|---------------------------------------------------------------------------|
[ Tab from: http://www.guitartabs.cc/tabs/d/dimmu_borgir/alt_lys_er_svunnet_hen_tab.html ]
Riff 4:
e|---------------------------------------------------------------------------|
B|---------------------------------------------------------------------------|
G|---------------------------------------------------------------------------|
D|---------------------------------------------------------------------------|
A|--77777777--333333333------------------------------------------------------|
E|--55555555--111111111------------------------------------------------------|

Fill:
e|---------------------------------------------------------------------------|
B|---------------------------------------------------------------------------|
G|------------11.-12.-11.--------------------12.-11.-9.-11.------------------|
D|-----7.-5.--------------------10.-9.-7.-9.---------------------------------|
A|--7.-----------------------7.----------------------------------------------|
E|---------------------------------------------------------------------------|

Riff 5:
e|---------------------------------------------------------------------------|
B|---------------------------------------------------------------------------|
G|--------------------11.-12.-11------------------12.-11.-9.-11.-------------|
D|-----10.-9.-7.-10.-----------------10.-9.-7.-9.----------------------------|
A|--7.----------------------------7.-----------------------------------------|
E|---------------------------------------------------------------------------|

Riff 6:
e|---------------------------------------------------------------------------|
B|---------------------------------------------------------------------------|
G|---------------------------------------------------------------------------|
D|--9.-8--7.-----------------------------------------------------------------|
A|--7.-6--5.--5.-7--9.-------------------------------------------------------|
E|------------3.-5--7.-------------------------------------------------------|

Riff 7:
e|---------------------------------------------------------------------------|
B|---------------------------------------------------------------------------|
G|---------4.-7.-9.---------4.-7.-6.-4---------------------------------------|
D|--9.-8.------------9.-8.---------------------------------------------------|
A|---------------------------------------------------------------------------|
E|---------------------------------------------------------------------------|


Riff 1,
Riff 2,
Riff 3,
Riff 4,
Fill,
Riff 5,
Riff 6,
Riff 5,
Riff 6,
Riff 7,
Comments