Dimmu Borgir - A Succubus In Rapture Chords & Tabs

 

A Succubus In Rapture Chords & Tabs

Dimmu Borgir Chords & Tabs

Version: 1 Type: Bass Tab 0 ratings
1 star 2 stars 3 stars 4 stars 5 stars
comments

A Succubus In Rapture Bass Tab

Listen to song for timing

G||------------------|------------------|------------------|----------------|
D||------------------|------------------|------------------|----------------|
A||------------------|------------------|------------------|----------------|
E||------------------|------------------|------------------|----------------|


------------------|------------------|----------------------|
------------------|------------------|----------------------|
------------------|------------------|----------------------|
------------------|------------------|----------3--3--3--3--|


--------------------------|-------------------|------------------|
--------------------------|-------------------|------------------|
--------------------------|--3----------------|------------------|
--3--3--3--3--3--3--3--3--|-------------------|------------------|


-------------------|------------------|-------------------|-----------------|
-------------------|------------------|-------------------|-----------------|
-------------------|------------------|--3----------------|-----------------|
--3----------------|------------------|-------------------|-----------------|


-------------------|------------------|-------------------|-----------------|
-------------------|------------------|-------------------|-----------------|
-------------------|------------------|--3----------------|-----------------|
--3----------------|------------------|-------------------|-----------------|


-------------------|------------------|-------------------|-----------------|
-------------------|------------------|-------------------|-----------------|
-------------------|------------------|--3----------------|-----------------|
--3----------------|------------------|-------------------|-----------------|


-------------------|------------------|-------------------|-----------------|
-------------------|------------------|-------------------|-----------------|
-------------------|------------------|-------------------|--3--------------|
--3----------------|------------------|--5----------------|-----------------|


-------------------|-------------------|-------------------|----------------|
-------------------|-------------------|-------------------|----------------|
-------------------|--5----------------|-------------------|--3-------------|
--3----------------|-------------------|--5----------------|----------------|


-------------------|-------------------|-------------------|----------------|
-------------------|-------------------|-------------------|----------------|
-------------------|--5----------------|-------------------|--3-------------|
--3----------------|-------------------|--5----------------|----------------|


-------------------|-------------------|-------------------|----------------|
-------------------|-------------------|-------------------|----------------|
-------------------|--5----------------|-------------------|--3-------------|
--3----------------|-------------------|--5----------------|----------------|


-------------------|-------------------|--------------------------|
-------------------|-------------------|--------------------------|
-------------------|--5----------------|--------------------------|
--3----------------|-------------------|--12--------12--12--12----|


--------------------------|--------------------------|
--------------------------|--------------------------|
--------------------------|--------------------------|
--11--------11--11--11----|--10--------10--10--10----|


--------------------------|--------------------------|
--------------------------|--------------------------|
--------------------------|--------------------------|
--10--------10--10--10----|--12--------12--12--12----|


--------------------------|--------------------------|----------------------|
--------------------------|--------------------------|----------------------|
--------------------------|--------------------------|--5--5--5--5--5---5---|
--11--------11--11--11----|--10--------10--10--10----|----------------------|


-------------------------------|-------------------------------|
-------------------------------|-------------------------------|
-------------------------------|--3--3-3-3-3-3--3-3-3-3-3--3-3-|
--5--5-5-5-5-5--5-5-5-5-5--5-5-|-------------------------------|


-------------------------------|-------------------------------|
-------------------------------|-------------------------------|
-------------------------------|--5--5-5-5-5-5--5-5-5-5-5--5-5-|
--3--3-3-3-3-3--3-3-3-3-3--3-3-|-------------------------------|


-------------------------------|-------------------------------|
-------------------------------|-------------------------------|
-------------------------------|--3--3-3-3-3-3--3-3-3-3-3--3-3-|
--5--5-5-5-5-5--5-5-5-5-5--5-5-|-------------------------------|


-------------------------------|-------------------------------|
-------------------------------|-------------------------------|
-------------------------------|--5--5-5-5-5-5--5-5-5-5-5--5-5-|
--3--3-3-3-3-3--3-3-3-3-3--3-3-|-------------------------------|


-------------------------------|-------------------------------|
-------------------------------|-------------------------------|
-------------------------------|--3--3-3-3-3-3--3-3-3-3-3--3-3-|
--5--5-5-5-5-5--5-5-5-5-5--5-5-|-------------------------------|


-------------------------------|-------------------------------|
-------------------------------|-------------------------------|
-------------------------------|--5--5-5-5-5-5--5-5-5-5-5--5-5-|
--3--3-3-3-3-3--3-3-3-3-3--3-3-|-------------------------------|


-------------------------------|-------------------------------|
-------------------------------|-------------------------------|
-------------------------------|--3--3-3-3-3-3--3-3-3-3-3--3-3-|
--5--5-5-5-5-5--5-5-5-5-5--5-5-|-------------------------------|


-------------------------------|-------------------------------|
-------------------------------|-------------------------------|
-------------------------------|--5--5-5-5-5-5--5-5-5-5-5--5-5-|
--3--3-3-3-3-3--3-3-3-3-3--3-3-|-------------------------------|


--------------------|-------------------|--------------------|
--------------------|-------------------|--------------------|
--------------------|-------------------|--------------------|
--5--------1--------|--3----------------|--5--------1--------|


-------------------|--------------------|-------------------|
-------------------|--------------------|-------------------|
-------------------|--------------------|-------------------|
--3----------------|--5--------1--------|--3----------------|


--------------------|-------------------|--------------------|
--------------------|-------------------|--------------------|
--------------------|-------------------|--------------------|
--5--------1--------|--3----------------|--5--------1--------|


-------------------|--------------------|-------------------|
-------------------|--------------------|-------------------|
-------------------|--------------------|-------------------|
--3----------------|--5--------1--------|--3----------------|


--------------------|-------------------|--------------------|
--------------------|-------------------|--------------------|
--------------------|-------------------|--------------------|
--5--------1--------|--3----------------|--5--------1--------|


-------------------|--------------------------|--------------------------|
-------------------|--------------------------|--------------------------|
-------------------|--------------------------|--------------------------|
--3----------------|--12--------12--12--12----|--11--------11--11--11----|


--------------------------|--------------------------|
--------------------------|--------------------------|
--------------------------|--------------------------|
--10--------10--10--10----|--10--------10--10--10----|


--------------------------|--------------------------|
--------------------------|--------------------------|
--------------------------|--------------------------|
--12--------12--12--12----|--11--------11--11--11----|


--------------------------|------------------------|
--------------------------|------------------------|
--------------------------|--5--5--5--5--5----5----|
--10--------10--10--10----|------------------------|


-------------------------------|-------------------------------|
-------------------------------|-------------------------------|
-------------------------------|--3--3-3-3-3-3--3-3-3-3-3--3-3-|
--5--5-5-5-5-5--5-5-5-5-5--5-5-|-------------------------------|


-------------------------------|-------------------------------|
-------------------------------|-------------------------------|
-------------------------------|--5--5-5-5-5-5--5-5-5-5-5--5-5-|
--3--3-3-3-3-3--3-3-3-3-3--3-3-|-------------------------------|


-------------------------------|-------------------------------|
-------------------------------|-------------------------------|
-------------------------------|--3--3-3-3-3-3--3-3-3-3-3--3-3-|
--5--5-5-5-5-5--5-5-5-5-5--5-5-|-------------------------------|

[ Tab from: http://www.guitartabs.cc/tabs/d/dimmu_borgir/a_succubus_in_rapture_btab.html ]
-------------------------------|-------------------------------|
-------------------------------|-------------------------------|
-------------------------------|--5--5-5-5-5-5--5-5-5-5-5--5-5-|
--3--3-3-3-3-3--3-3-3-3-3--3-3-|-------------------------------|


-------------------------------|-------------------------------|
-------------------------------|-------------------------------|
-------------------------------|--3--3-3-3-3-3--3-3-3-3-3--3-3-|
--5--5-5-5-5-5--5-5-5-5-5--5-5-|-------------------------------|


-------------------------------|-------------------------------|
-------------------------------|-------------------------------|
-------------------------------|--5--5-5-5-5-5--5-5-5-5-5--5-5-|
--3--3-3-3-3-3--3-3-3-3-3--3-3-|-------------------------------|


-------------------------------|-------------------------------|
-------------------------------|-------------------------------|
-------------------------------|--3--3-3-3-3-3--3-3-3-3-3--3-3-|
--5--5-5-5-5-5--5-5-5-5-5--5-5-|-------------------------------|


-------------------------------|-------------------------------|
-------------------------------|-------------------------------|
-------------------------------|--5--5-5-5-5-5--5-5-5-5-5--5-5-|
--3--3-3-3-3-3--3-3-3-3-3--3-3-|-------------------------------|


-------------------|------------------|-------------------|-----------------|
-------------------|------------------|-------------------|-----------------|
--3----------------|------------------|-------------------|-----------------|
-------------------|------------------|--3----------------|-----------------|


-------------------|------------------|-------------------|-----------------|
-------------------|------------------|-------------------|-----------------|
--3----------------|------------------|-------------------|-----------------|
-------------------|------------------|--3----------------|-----------------|


-------------------|------------------|-------------------|-----------------|
-------------------|------------------|-------------------|-----------------|
--3----------------|------------------|-------------------|-----------------|
-------------------|------------------|--3----------------|-----------------|


-------------------|------------------|-------------------|-----------------|
-------------------|------------------|-------------------|-----------------|
--3----------------|------------------|-------------------|-----------------|
-------------------|------------------|--3----------------|-----------------|


-------------------|------------------|------------------|------------------|
-------------------|------------------|------------------|------------------|
-------------------|------------------|------------------|------------------|
--5----------------|------------------|------------------|------------------|


------------------|------------------|------------------|------------------|
------------------|------------------|------------------|------------------|
------------------|------------------|------------------|------------------|
------------------|------------------|------------------|------------------|


----------------------------------|----------------------------------|
----------------------------------|----------------------------------|
----------------------------------|----------------------------------|
--5-5-5-5-5-5-5-5-5-5-5-5-5-5-5-5-|--5-5-5-5-5-5-5-5-5-5-5-5-5-5-5-5-|


----------------------------------|----------------------------------|
----------------------------------|----------------------------------|
----------------------------------|----------------------------------|
--1-1-1-1-1-1-1-1-1-1-1-1-1-1-1-1-|--0-0-0-0-0-0-0-0-0-0-0-0-0-0-0-0-|


----------------------------------|----------------------------------|
----------------------------------|----------------------------------|
----------------------------------|----------------------------------|
--5-5-5-5-5-5-5-5-5-5-5-5-5-5-5-5-|--5-5-5-5-5-5-5-5-5-5-5-5-5-5-5-5-|


----------------------------------|----------------------------------|
----------------------------------|----------------------------------|
----------------------------------|----------------------------------|
--1-1-1-1-1-1-1-1-1-1-1-1-1-1-1-1-|--0-0-0-0-0-0-0-0-0-0-0-0-0-0-0-0-|


----------------------------------|----------------------------------|
----------------------------------|----------------------------------|
----------------------------------|----------------------------------|
--5-5-5-5-5-5-5-5-5-5-5-5-5-5-5-5-|--5-5-5-5-5-5-5-5-5-5-5-5-5-5-5-5-|


----------------------------------|----------------------------------|
----------------------------------|----------------------------------|
----------------------------------|----------------------------------|
--1-1-1-1-1-1-1-1-1-1-1-1-1-1-1-1-|--0-0-0-0-0-0-0-0-0-0-0-0-0-0-0-0-|


----------------------------------|----------------------------------|
----------------------------------|----------------------------------|
----------------------------------|----------------------------------|
--5-5-5-5-5-5-5-5-5-5-5-5-5-5-5-5-|--5-5-5-5-5-5-5-5-5-5-5-5-5-5-5-5-|


----------------------------------|----------------------------------|
----------------------------------|----------------------------------|
----------------------------------|----------------------------------|
--1-1-1-1-1-1-1-1-1-1-1-1-1-1-1-1-|--0-0-0-0-0-0-0-0-0-0-0-0-0-0-0-0-|


----------------------------------|----------------------------------|
----------------------------------|----------------------------------|
----------------------------------|----------------------------------|
--5-5-5-5-5-5-5-5-5-5-5-5-5-5-5-5-|--5-5-5-5-5-5-5-5-5-5-5-5-5-5-5-5-|


----------------------------------|----------------------------------|
----------------------------------|----------------------------------|
----------------------------------|----------------------------------|
--1-1-1-1-1-1-1-1-1-1-1-1-1-1-1-1-|--0-0-0-0-0-0-0-0-0-0-0-0-0-0-0-0-|


----------------------------------|----------------------------------|
----------------------------------|----------------------------------|
----------------------------------|----------------------------------|
--5-5-5-5-5-5-5-5-5-5-5-5-5-5-5-5-|--5-5-5-5-5-5-5-5-5-5-5-5-5-5-5-5-|


----------------------------------|----------------------------------|
----------------------------------|----------------------------------|
----------------------------------|----------------------------------|
--1-1-1-1-1-1-1-1-1-1-1-1-1-1-1-1-|--0-0-0-0-0-0-0-0-0-0-0-0-0-0-0-0-|


--------------------|-------------------|--------------------|
--------------------|-------------------|--------------------|
--------------------|-------------------|--------------------|
--5--------1--------|--3----------------|--5--------1--------|


-------------------|--------------------|-------------------|
-------------------|--------------------|-------------------|
-------------------|--------------------|-------------------|
--3----------------|--5--------1--------|--3----------------|


--------------------|-------------------|--------------------|
--------------------|-------------------|--------------------|
--------------------|-------------------|--------------------|
--5--------1--------|--3----------------|--5--------1--------|


-------------------|--------------------|-------------------|
-------------------|--------------------|-------------------|
-------------------|--------------------|-------------------|
--3----------------|--5--------1--------|--3----------------|


--------------------|-------------------|--------------------|
--------------------|-------------------|--------------------|
--------------------|-------------------|--------------------|
--5--------1--------|--3----------------|--5--------1--------|


-------------------|--------------------|-------------------|
-------------------|--------------------|-------------------|
-------------------|--------------------|-------------------|
--3----------------|--5--------1--------|--3----------------|


--------------------|-------------------|--------------------|
--------------------|-------------------|--------------------|
--------------------|-------------------|--------------------|
--5--------1--------|--3----------------|--5--------1--------|


-------------------|--------------------|-------------------|
-------------------|--------------------|-------------------|
-------------------|--------------------|-------------------|
--3----------------|--5--------1--------|--3----------------|


--------------------|-------------------|--------------------|
--------------------|-------------------|--------------------|
--------------------|-------------------|--------------------|
--5--------1--------|--3----------------|--5--------1--------|


-------------------|--------------------|-------------------|
-------------------|--------------------|-------------------|
-------------------|--------------------|-------------------|
--3----------------|--5--------1--------|--3----------------|


--------------------|-------------------||
--------------------|-------------------||
--------------------|-------------------||
--5--------1--------|--3----------------

Excellent song, Easy
Comments