Dilba - Im Sorry Chords & Tabs

 

Im Sorry Chords & Tabs

Dilba Chords & Tabs

Version: 2 Type: Tab 0 ratings
1 star 2 stars 3 stars 4 stars 5 stars
comments

Im Sorry Tab

#----------------------------------PLEASE NOTE---------------------------------#
#This file is the author's own work and represents their interpretation of the #
#song. You may only use this file for private study, scholarship, or research. #
#------------------------------------------------------------------------------#
#


From ph_dc61@ingprog.material.uu.se Thu May  8 13:52:13 1997
Date: Mon, 21 Apr 1997 08:17:57 +0200
From: elev 
To: guitar@olga.net
Subject: TAB: "I'm sorry" ,by "Dilba"

---==D I L B A==---
              I'm sorry


Part I:
|--3-----3-----3-0---0---3-----3-----||
|----0-----0-------3---3---3-----3---||
|----------------------------------*-||
|----------------------------------*-||
|------------------3-------3---------||
|--0-0-----0-------------------------||

[ Tab from: http://www.guitartabs.cc/tabs/d/dilba/im_sorry_tab_ver_2.html ]
Part II:
|--3-----3-----3---3-----3-----3-----||
|----0-----0-----0---0-----0-----0---||
|------------------------------------||
|------------------------------------||
|------------------------------------||
|--0-0-----0-------0-0-----0---------||


Notes from me:
(Scince it's a song in english, I'll
write in english, even though I guess
it's not known outside Sweden.)

Played, I belive, on a twelvestringed
acoustic.

How to play:
Well, nothing fancy, first part I a
couple of times, then Part II one time.
Repeat this pattern throughout the verse.
(O.K. not really through, there's a
part just before the chorus, that's
different, I'll work on it :-). )
For the CHORUS? My friend told me C & D.
The LYRICS? I've got them, but I don't
have the energy totype them down.If I
get some requests for it, I could
probably take the time.

   Petter 

     Be Quick Or Be Dead...  (Iron Maiden)
Comments