Difranco Ani - Shy Chords & Tabs

 

Shy Chords & Tabs

Difranco Ani Chords & Tabs

Version: 1 Type: Bass Tab 0 ratings
1 star 2 stars 3 stars 4 stars 5 stars
comments

Shy Bass Tab

Shy 

from Not a Pretty Girl
by Ani DiFranco 
Standard Tuning

This first part starts after first chorus:

G-------------------------------------
D------------------------------2------
A-------4---2---5---------------------
E---2----------------5---4-------4----

This part comes when Ani starts singing after first chorus: 

G-------------------
D-------------------
A-------4------7---
E---2------5-------

Chorus:
[ Tab from: http://www.guitartabs.cc/tabs/d/difranco_ani/shy_btab.html ]
G------------------|-----
D------------------|--0--
A------------------|--5--
E---2---5-5-5------|------

End:

G------------------------------------------
D------------------------------------------
A------------------------------------------
E---2-2----10--10--9---5-5----4--5--4------

Fool around with the end part, she does all kinds of funky stuff - 
listen to the cd to get an idea.


transcribed by Duncan and Josh


Comments