Diesel Boy - Saving The World Chords & Tabs

 

Saving The World Chords & Tabs

Diesel Boy Chords & Tabs

Version: 2 Type: Bass Tab 0 ratings
1 star 2 stars 3 stars 4 stars 5 stars
comments

Saving The World Bass Tab

   
Song: Saving the world
Band: diesel boy
Album: cock rock
tabbed by: Carlos Pino

   verse a
G:---------------------------------------------------------------
D:---------------------------------------------------------------
A:-5-5-5-5-5-5-5-5-5-5-5-5-5-5-5-5--2-2-2-2-2-2-2-2-2-2-2-2-2-2-2-2
E:---------------------------------------------------------------

G:---------------------------------------------------------------
D:---------------------------------------------------------------
A:---------------------------------------------------------------
E:-3-3-3-3-3-3-3-3-3-3-3-3-3-3-3-3--5-5-5-5-5-5-5-5-5-5-5-5-5-5-5-5
[ Tab from: http://www.guitartabs.cc/tabs/d/diesel_boy/saving_the_world_btab_ver_2.html ]
    verse b 
G:---------------------------------------------------------------
D:---------------------------------------------------------------
A:--5-2---------------------------------------------------------
E:--------3-5---------------------------------------------------

   chorus a                    chorus b
G:---------------------------------------------------------------
D:---------------------------------------------------------------
A:------------------------5--------------------------------------
E:-3-5-10-9-7--3-5-------3-5-10-9-7--3-5-3-5-3-5---

verse a
verse a
chorus a
verse b
verse a
verse a
chorus b
Comments