Dierks Bentley - Gonna Get There Some Day Chords & Tabs

 

Dierks Bentley Chords & Tabs

Version: 1 Type: Tab 0 ratings
1 star 2 stars 3 stars 4 stars 5 stars
comments

Gonna Get There Some Day Tab

E|-12--15--17----17--19h-17--15--12--15---|
B|----------------------------------------|
G|----------------------------------------|
D|----------------------------------------|
A|----------------------------------------|
E|----------------------------------------|



E|-12--15--17----17--19h-17--15--12--15---|
B|----------------------------------------|
G|----------------------------------------|
D|----------------------------------------|
A|----------------------------------------|
E|----------------------------------------|

[ Tab from: http://www.guitartabs.cc/tabs/d/dierks_bentley/gonna_get_there_some_day_tab.html ]
E|-12-12----------------------------------|
B|------13--15-15-17h-15-13-10--17--------|
G|----------------------------------------|
D|----------------------------------------|
A|----------------------------------------|
E|----------------------------------------|


E|----------------------------------------|
B|-10-13--13-15h--15-17h-15-13-10-13------|
G|----------------------------------------|
D|----------------------------------------|
A|----------------------------------------|
E|----------------------------------------|


This substitutes for a fiddle, that's why it's kind of high.  Play
around with it and have fun.







Comments