Die Trying - Oxygens Gone Chords & Tabs

 

Oxygens Gone Chords & Tabs

Die Trying Chords & Tabs

Version: 3 Type: Tab 0 ratings
1 star 2 stars 3 stars 4 stars 5 stars
comments

Oxygens Gone Tab

E--------------------------------------|
B--------------------------------------|
G--6---9---2---4-----------------------|
D--7---10--3---5-----------------------|
A--7---10--3---5-----------------------|
E--5---8---1---3-----------------------|
[ Tab from: http://www.guitartabs.cc/tabs/d/die_trying/oxygens_gone_tab_ver_3.html ]
E--------------------------------------|
B--------------------------------------|
G--6---9---2---4-----------------------|
D--7---10--3---5-----------------------|
A--7---10--3---5-----------------------|
E--5---8---1---3-----------------------|
[ Tab from: http://www.guitartabs.cc/tabs/d/die_trying/oxygens_gone_tab_ver_3.html ]

E--------------------------------------|
B--------------------------------------|
G--6---9---2---4-----------------------|
D--7---10--3---5-----------------------|
A--7---10--3---5-----------------------|
E--5---8---1---3-----------------------|
[ Tab from: http://www.guitartabs.cc/tabs/d/die_trying/oxygens_gone_tab_ver_3.html ]
:p just to make the tab long enough


Not much, but it sounds good
Comments