Die Trying - One Day At A Time Chords & Tabs

 

One Day At A Time Chords & Tabs

Die Trying Chords & Tabs

Version: 1 Type: Bass Tab 0 ratings
1 star 2 stars 3 stars 4 stars 5 stars
comments

One Day At A Time Bass Tab

-------------------------------------------------------------------------
                      ONE DAY AT A TIME - Die Trying
-------------------------------------------------------------------------

Tabbed By : SocietyZer0
e-mail: pnilan@surewest.net
Tuning: Drop D

im pretty sure i tabbed this song 100% correct...

Intro x1
G|----------------------------------------------------------------|
D|----------------------------------------------------------------|
A|----------------------------------------------------------------|
D|---66--22---99----44-4444---66--22--66--44-4444-----------------|

Intro (cont.) x1
G|----------------------------------------------------------------|
D|----------------------------------------------------------------|
A|----------------------------------------------------------------|
D||---99--22--66----44-4444---66--22--66--44-4444-----------------|

Verse x3
G|---------------------------------------------|
D|---------------------------------------------|
A|-------2-------2----------2------------------|
D|--66----266-------22-----122--4--------------|

Last part of verse x1
G|-------------------------------------------------|
D|-------------------------------------------------|
A|-------2-------2---------------------------------|
D|--66----266-------2222222244444440---------------|

Pre Chorus x1
G|---------------------------------------------------|
D|---------------------------------------------------|
A|--------------------2------------------------------|
D|----66--66---66------22--22---22--4----------------|

Pre-Chorus x1
G|------------------------------------------------------------|
D|------------------------------------------------------------|
A|---------------------2--------------------------------------|
D|----66--66---66--------222222244444444----------------------|


Chorus x1
G|---------------------------------------------------------|
D|---------------------------------------------------------|
A|---------------------------------------------------------|
D|--66-22-99-44-4444--66-22-66-44-4444---------------------|

Chorus cont.
G|---------------------------------------------------------|
D|---------------------------------------------------------|
A|---------------------------------------------------------|
D|--99-22-66-44-4444--66-22-66-44-4444---------------------|

Chorus cont.
G|---------------------------------------------------------|
D|---------------------------------------------------------|
A|---------------------------------------------------------|
D|--66-22-99-44-4444--66-22-66-44-4444---------------------|

Chorus cont.
G|---------------------------------------------------------|
D|---------------------------------------------------------|
A|---------------------------------------------------------|
D|--99-22-66-44-4444--66-22-66-44-4444---------------------|

Pre Verse x1
G| --------------------------------------|
D| --------------------------------------|
A| ------------2-------*11\--------9\----|   (*11= 11th fret)
D| --66--66------22----------44----------|

Verse x3
G|--------------------------------------------|
D|--------------------------------------------|
A|-------2-------2----------2-----------------|
D|--66----266-------22-----122--4-------------|

Last part of verse x1
G|------------------------------------------------|
D|------------------------------------------------|
A|-------2-------2--------------------------------|
D|--66----266-------2222222244444440--------------|

Pre Chorus x1
G|-------------------------------------|
D|-------------------------------------|
A|------------------2------------------|
D|----66--66---66------22--22---22--4--|
[ Tab from: http://www.guitartabs.cc/tabs/d/die_trying/one_day_at_a_time_btab.html ]
Pre-Chorus x1
G|------------------------------------------------------------|
D|------------------------------------------------------------|
A|---------------------2--------------------------------------|
D|----66--66---66--------222222244444444----------------------|


Chorus x1
G|---------------------------------------------------------|
D|---------------------------------------------------------|
A|---------------------------------------------------------|
D|--66-22-99-44-4444--66-22-66-44-4444---------------------|

Chorus cont.
G|-------------------------------------|
D|-------------------------------------|
A|-------------------------------------|
D|--99-22-66-44-4444--66-22-66-44-4444-|

Chorus cont.
G|-------------------------------------|
D|-------------------------------------|
A|-------------------------------------|
D|--66-22-99-44-4444--66-22-66-44-4444-|

Chorus cont.
G|---------------------------------------------------------|
D|---------------------------------------------------------|
A|---------------------------------------------------------|
D|--99-22-66-44-4444--66-22-66-44-4444---------------------|

Bridge x1
G| --------------------------------------------------------------|
D| --------------------------------------------------------------|
A|---------------------------------------------------------------|
D| --2--------------------6----------------4---------------------|

Bridge Cont.
G| ---------------------------------------------------------------------|
D| ---------------------------------------------------------------------|
A| ---------------------------------------------------------------------|
D| ---2-------5-3-3-3-3-2-2-2--6-------------4--------------------------|

Bridge cont.
G| --------------------------------------------------------------|
D| --------------------------------------------------------------|
A|---------------------------------------------------------------|
D| --2--------------------6----------------4---------------------|

Bridge Cont.
G| ---------------------------------------------------------------------|
D| ---------------------------------------------------------------------|
A| ---------------------------------------------------------------------|
D| ---2-------5-3-3-3-3-2-2-2--6-------------4--------------------------|


2nd half of Chorus
G|---------------------------------------------------------|
D|---------------------------------------------------------|
A|---------------------------------------------------------|
D|--66-22-99-44-4444--66-22-66-44-4444---------------------|

Chorus cont.
G|---------------------------------------------------------|
D|---------------------------------------------------------|
A|---------------------------------------------------------|
D|--99-22-66-44-4444--66-22-66-44-4444---------------------|

Chorus x2
G|---------------------------------------------------------|
D|---------------------------------------------------------|
A|---------------------------------------------------------|
D|--66-22-99-44-4444--66-22-66-44-4444---------------------|

Chorus cont.
G|---------------------------------------------------------|
D|---------------------------------------------------------|
A|---------------------------------------------------------|
D|--99-22-66-44-4444--66-22-66-44-4444---------------------|

Chorus cont.
G|---------------------------------------------------------|
D|---------------------------------------------------------|
A|---------------------------------------------------------|
D|--66-22-99-44-4444--66-22-66-44-4444---------------------|

Chorus cont.
G|---------------------------------------------------------|
D|---------------------------------------------------------|
A|---------------------------------------------------------|
D|--99-22-66-44-4444--66-22-66-44-4444---------------------|
Comments