Die Toten Hosen - Steh Auf Wenn Du Am Boden Bist Chords & Tabs

 

Steh Auf Wenn Du Am Boden Bist Chords & Tabs

Die Toten Hosen Chords & Tabs

Version: 1 Type: Tab 0 ratings
1 star 2 stars 3 stars 4 stars 5 stars
comments

Steh Auf Wenn Du Am Boden Bist Tab

   
source http://www.hosentabs.ch.vu

Steh auf, wenn du am Boden bist


[Intro]

    E   Esus E   H
E |----------------:|
H |----------------:|
G |--1----2-1------:|
D |--2----2-2----4-:|
A |--2----2-2----2-:|
E |----------------:|


[1.Strophe]

E |-----------------------|
H |-----------------------|
G |--1----2----1----2-----|
D |--2----2----2----2-----|
A |--2----0----2----0--4--|
E |--------------------2--|

E |-------------------------|
H |-------------------------|
G |--4---------2----4----1--|
D |--4---------2----4----2--|
A |--2----4----0----2----2--|
E |-------2-----------------|

      E             A
Wenn du mit dir am Ende bist
     E                A      F#m
Und du einfach nicht weiter willst
     H                  F#m             A
Weil du dich nur noch fragst warum und wozu
              H                  E
Und was dein Leben noch bringen soll

Halt durch, auch wenn du allein bist
Halt durch, schmeiss jetzt nicht alles hin
Halt durch, und irgendwann wirst du versteh'n
Dass es jedem einmal so geht


[Bridge] (Powerchords)
              F#                H
Und wenn ein Sturm dich in die Knie zwingt
             F#                      H
Halt dein Gesicht einfach gegen den Wind
          F#                H
Egal wie dunkel die Wolken über dir sind
             F#           A    H
Sie werden irgendwann vorüberzieh'n


[Refrain]
      E               A      H
Steh auf, wenn du am Boden bist
Steh auf, auch wenn du unten liegst
      C#                  A         H      E
Steh auf, es wird schon irgendwie weiter gehen


[Zwischenspiel]
[ Tab from: http://www.guitartabs.cc/tabs/d/die_toten_hosen/steh_auf_wenn_du_am_boden_bist_tab.html ]
E |----------------:|
H |----------------:|
G |--1----2-1------:|
D |--------------4-:|
A |----------------:|
E |----------------:|


[2.Strophe] (Powerchords)

Es ist schwer, seinen Weg nicht zu verlier'n
Und bei den Regeln und Gesetzen hier
Ohne Verrat ein Leben zu führ'n
Dass man selber noch respektiert


[Bridge]

Auch wenn die Zeichen gerade alle gegen dich stehn
Und niemand auf dich wetten will
Du brauchst hier keinem irgend einen Beweis zu bringen
Es sei denn es ist für dich selbst


[Refrain]

Steh auf, wenn du am Boden bist
Steh auf, auch wenn du unten liegst
Steh auf, es wird schon irgendwie weiter gehen


[Solo]

E |-------------------------------|
H |-------------------------------|
G |-----------1-2--1-----1--------|
D |--2----2-4---------4-----1-----|
A |-------------------------------|
E |-------------------------------|

E |-------------------------------|
H |-------------------------------|
G |-------------------------------|
D |------1-2--------1--2----2-4---|
A |--4-4---------4----------------|
E |-------------------------------|

E |-------------------------------|
H |-------------------------------|
G |--1-2--1-----1-----------------|
D |----------4-----1-------1-2--4-|
A |---------------------4---------|
E |-------------------------------|


[Bridge]

Nur keine Panik so schlimm wird es nicht
Mehr als deinen Kopf reisst man dir nicht weg
Komm und seh' nach vorn

[Refrain]

Steh auf, wenn du am Boden bist
Steh auf, auch wenn du unten liegst
Steh auf, es wird weiter gehen

Steh auf, wenn du am Boden bist
Steh auf, auch wenn du unten liegst
Steh auf, es wird schon irgendwie weiter gehen


[Coda]

E |-------------------------------|
H |-------------------------------|
G |-----------1-2--1-----1--------|
D |--2----2-4---------4-----1-----|
A |-------------------------------|
E |-------------------------------|

E |----------------------|
H |----------------------|
G |----------------------|
D |-----1-2----4----2----|
A |--4-------------------|
E |----------------------|
Comments